Strokes - Someday Chords & Tabs

 

Someday Chords & Tabs

Strokes Chords & Tabs

Version: 1 Type: Tab 0 ratings
1 star 2 stars 3 stars 4 stars 5 stars
comments

Someday Tab

   
#----------------------------------PLEASE NOTE---------------------------------#
#This file is the author's own work and represents their interpretation of the #
#song. You may only use this file for private study, scholarship, or research. #
#------------------------------------------------------------------------------#
#


Artist:     The Strokes
Album:      Is This It?
Song:       Someday
Tab Author: Willie D  




The main bass riff goes: 

---------------------------
---------------------------
--0-0---2-2---5-5--0-0-----
---------------------------

I’ve noted it because it tends to throw you off the guitar parts.




Guitar 1(lead): 


Intro/verse:

---5---7------9----7------9----7------7---5------------ 
---5---5------7----7------7----7------5---5------------ 
---6---6------7----7------7----7------6---6------------ 
--(7)-(7)----(9)--(9)----(9)--(9)----(7)-(7)----------- 
------------------------------------------------------- 
------------------------------------------------------- 

the parentheticals are optional (but give the chord a fuller sound.)
if you want, just play last 2 strings

(Mad props to BooBoo-Kitty for this part)

Chorus:
                                       D    A
-----12--------------------------------5----5--
--14----12---/12-15-12-14--------------7----5--
---------------------------------------7----6--
---------------------------------------7----7--
---------------------------------------5----7--
--------------------------------------------5-- 
[ Tab from: http://www.guitartabs.cc/tabs/s/strokes/someday_tab.html ]
                 E                        A
               --7--                    --5--
               --9--                    --5--
               --9--                    --6--
               --9--                    --7--
               --7--                    --7--
end of chorus: -----   Finish song on : --5--



Guitar 2(rhythm): strum continuously


Verse:
   
   A               D               A
---5--5--5---------5--5--5---------5--5--5-------------
---5--5--5---------7--7--7---------5--5--5-------------
---6--6--6---------7--7--7---------6--6--6-------------
---7--7--7---------7--7--7---------7--7--7-------------
---7--7--7---------5--5--5---------7--7--7-------------
---5--5--5--etc.------------etc.---5--5--5---etc.------



Chorus:

   A     Bm    C#m   D     A
---5-----7-----4-----5-----5-----------------------------------
---5-----7-----5-----7-----5-----------------------------------
---6-----7-----6-----7-----6-----------------------------------
---7-----9-----6-----7-----7-----------------------------------
---7-----9-----4-----5-----7-----------------------------------
---5-----7-----------------5-----------------------------------


                 E                        A
               --7--                    --5--
               --9--                    --5--
               --9--                    --6--
               --9--                    --7--
               --7--                    --7--
end of chorus: -----   Finish song on : --5--
Comments