Strokes - Someday Chords & Tabs

 

Someday Chords & Tabs

Strokes Chords & Tabs

Version: 1 Type: Chords 0 ratings
1 star 2 stars 3 stars 4 stars 5 stars
comments

Someday Chords

   
#----------------------------------PLEASE NOTE---------------------------------#
#This file is the author's own work and represents their interpretation of the #
#song. You may only use this file for private study, scholarship, or research. #
#------------------------------------------------------------------------------#

I usually don't TAB songs out but i'm gonna make an exception because 
even early beginners should be able to play this great song

"Someday" by The Strokes
TABBED by KRAMER
Lead Pattern written in TAB
Rythm Written above TAB as a chord letter

[ Tab from: http://www.guitartabs.cc/tabs/s/strokes/someday_crd.html ]
intro: 
e|-5-7--9-7--9-7--7-5
B|-5-5--7-7--7-7--7-5
G|-6-6--7-7--7-7--7-6
D|-7-7--9-9--9-9--9-7
A|-------------------
E|-------------------

the  verses:
   A    D         A
e|-5-7--9-7--9-7--7-5
B|-5-5--7-7--7-7--7-5
G|-6-6--7-7--7-7--7-6
D|-7-7--9-9--9-9--9-7
A|-------------------
E|-------------------

the Refrain:
repeat as nessecary

  A       E        F#         D    A  (note: it doesn't matter if its HIGH E, mix it up 
e|9-12-9-----10-------9-----  D    A  (strum)
B|--------12---12--10---10--  

Then Finally...
       E
"Ooooh someday..."
Song Ends on A

jewggers@epimp.com
other sumbissions include the hives, murder city devils, strokes, more on the way
Comments