Strokes - Someday Chords & Tabs

 

Someday Chords & Tabs

Strokes Chords & Tabs

Version: 7 Type: Bass Tab

Someday Bass Tab

 Well, i saw a lot of tabs for someday but i dont think theres one like this. 
  hope its right...it is. try it out
       
G|----------------------------|
D|----------------0-0~--------|
A|--0-0~---2-2~----------0-0~-| X6
E|----------------------------|


G|-------------------------------------------------------------------|
D|-------------------------------------------------------------------|
A|-------------------------1/7--4--------9--7---55555555-000000------| X4
E|---0-2------------5~-------------2---------------------------------|


G|----------------------------------------|
D|----------------------------------------|
A|----------------------------------------| 
E|--00000000000000000000000000000000--x32-| 

[ Tab from: http://www.guitartabs.cc/tabs/s/strokes/someday_btab_ver_7.html ]
G|----------------------------|
D|----------------0-0~--------|
A|--0-0~---2-2~----------0-0~-| X4
E|----------------------------|


G|-------------------------------------------------------------------|
D|-------------------------------------------------------------------|
A|-------------------------1/7--4--------9--7---55555555-000000------| X4
E|---0-2------------5~-------------2---------------------------------|


G|-----------------------------------------------|
D|-----------------------------------------------|
A|-----------------------------------------------| 
E|--00000000000000000000000000000000--5------x32-| 


| / Slide up 
| ~ Hold note (let it ring)

  Thanks Hope you guys enjoy. Im pretty sure this is it.


                                          By: Boss123