Strokes - Someday Chords & Tabs

 

Someday Chords & Tabs

Strokes Chords & Tabs

Version: 2 Type: Bass Tab 0 ratings
1 star 2 stars 3 stars 4 stars 5 stars
comments

Someday Bass Tab

Tabbed By : Michael Earnshaw
e-mail: rapmaster_m@hotmail.com

INTRO
G|---------------------------------------------------------------------------|
D|---------------------------------------------------------------------------|
A|--------------5-5---------------------5-5----------------------------------|
E|--5-5---7-7---------5-5---5-5---7-7---------5-5----------------------------|
[ Tab from: http://www.guitartabs.cc/tabs/s/strokes/someday_btab_ver_2.html ]
VERSE "In many ways..."
G|---------------------------------------------------------------------------|
D|---------------------------------------------------------------------------|
A|--------------5-5---------------------5-5----------------------------------|
E|--5-5---7-7---------5-5---5-5---7-7---------5-5----------------------------|
"When we was young..."
G|---------------------------------------------------------------------------|
D|---------------------------------------------------------------------------|
A|--------------5-5---------------------5-5----------------------------------|
E|--5-5---7-7---------5-5---5-5---7-7---------5-5----------------------------"And promises..."
G|---------------------------------------------------------------------------|
D|---------------------------------------------------------------------------|
A|--------------5-5---------------------5-5----------------------------------|
E|--5-5---7-7---------5-5---5-5---7-7---------5-5---0-2----------------------|
CHORUS
G|---------------------------------------------------------------------------|
D|---------------------------------------------------------------------------|
A|------7755----997755555555-------------7755----997755555555----------------|
E|--5555----7777------------55555502-5555----7777------------55555502--------|
"The longer we..."
G|---------------------------------------------------------------------------|
D|---------------------------------------------------------------------------|
A|------7755----997755555555-------------7755----997755555555----------------|
E|--5555----7777------------55555502-5555----7777------------55555502--------|
BRIDGE "Oh, someday..."              SOLO
G|---------------------------------------------------------------------------|
D|---------------------------------------------------------------------------|
A|----------------------------7755----------------5-5------------------------|
E|--00000000000000000000000000----77--5-5---7-7---------7-7------------------|
                            VERSE "And now my fears..."
G|---------------------------------------------------------------------------|
D|---------------------------------------------------------------------------|
A|--------------5-5---------------------5-5----------------------------------|
E|--5-5---7-7---------5-5---5-5---7-7---------5-5----------------------------|

G|---------------------------------------------------------------------------|
D|---------------------------------------------------------------------------|
A|--------------5-5----------------------------------------------------------|
E|--5-5---7-7---------5-5---0-2----------------------------------------------|
CHORUS 2
G|---------------------------------------------------------------------------|
D|---------------------------------------------------------------------------|
A|------7755----997755555555-------------7755----997755555555----------------|
E|--5555----7777------------55555502-5555----7777------------55555502--------|

G|---------------------------------------------------------------------------|
D|---------------------------------------------------------------------------|
A|------7755----997755555555-------------7755----997755555555----------------|
E|--5555----7777------------55555502-5555----7777------------55555502--------|
OUTRO "Oh, someday..."
G|---------------------------------------------------------------------------|
D|---------------------------------------------------------------------------|
A|----------------------------7755-------------------------------------------|
E|--00000000000000000000000000----775----------------------------------------|

Notes:
This is my first tab, and I'm not entirely sure about the chorus or the last
few notes of the bridge.  The rest I'm reasonably sure is right.

Enjoy!
Comments