Strokes - Soma Chords & Tabs

 

Soma Chords & Tabs

Strokes Chords & Tabs

Version: 4 Type: Tab 0 ratings
1 star 2 stars 3 stars 4 stars 5 stars
comments

Soma Tab

-----------------------------------------------------------------------
SOMA - The Strokes
-----------------------------------------------------------------------
Tabbed by: gtarnoob (mike)
Email: thecheat07@hotmail.com 
 
Tuning: normal

Guitar 1:

e|---3------------3---------|----------------10---------------------10|
B|---3------------3---------|-55----8-8-------------5-5----8-8-------|
G|---4------------4---------|-----------------------------------------|
D|---5------------5---------|-----------------------------------------|
A|---5------------5---------|-----------------------------------------|
E|---3------------3---------|-----------------------------------------|
  Let chords ring

e|---------------10----------------10-|---------------8-------------8-|
B|-5-5----8-8--------5-5----8-8-------|-3-3----6-6-------3-3---6-6----|
G|------------------------------------|-------------------------------|
D|------------------------------------|-------------------------------|
A|------------------------------------|-------------------------------|
E|------------------------------------|-------------------------------|

e|---------------10----------------10-|---------------8-------------8-|
B|-5-5----8-8--------5-5----8-8-------|-3-3----6-6-------3-3---6-6----|
G|------------------------------------|-------------------------------|
D|------------------------------------|-------------------------------|
A|------------------------------------|-------------------------------|
E|------------------------------------|-------------------------------|

e|---------------10----------------10-|---------------8-------------8-|
B|-5-5----8-8--------5-5----8-8-------|-3-3----6-6-------3-3---6-6----|
G|------------------------------------|-------------------------------|
D|------------------------------------|-------------------------------|
A|------------------------------------|-------------------------------|
E|------------------------------------|-------------------------------|

e|---------------10----------------10-|---------------8-------------8/|
B|-5-5----8-8--------5-5----8-8-------|-3-3----6-6-------3-3---6-6----|
G|------------------------------------|-------------------------------|
D|------------------------------------|-------------------------------|
A|------------------------------------|-------------------------------|
E|------------------------------------|-------------------------------|

e|-10--10--10--10--10--10--9-9-9-9--|-10--10--10--10--10--10--8-8-8-8-|
B|-x---x---x---x---x---x---x-x-x-x--|-x---x---x---x---x---x---x-x-x-x-|
G|o7---7---7---7---7---7---6-6-6-6-o|o7---7---7---7---7---7---5-5-5-5o|
D|o--------------------------------o|o-------------------------------o|
A|----------------------------------|---------------------------------|
E|----------------------------------|---------------------------------|
----------Repeat 2x----------





e|--3-----3-----3-----3---|----------------10----------------10-------|
B|--3-----3-----3-----3---|--5-5----8-8--------5-5----8-8-------------|
G|--4-----4-----4-----4---|o-----------------------------------------o|
D|--5-----5-----5-----5---|o-----------------------------------------o|
A|--5-----5-----5-----5---|-------------------------------------------|
E|--3-----3-----3-----3---|-------------------------------------------|
  Let chords ring

e|---------------10----------------10-|---------------8-------------8-|
B|-5-5----8-8--------5-5----8-8-------|-3-3----6-6-------3-3---6-6----|
G|------------------------------------|-------------------------------|
D|------------------------------------|-------------------------------|
A|------------------------------------|-------------------------------|
E|------------------------------------|-------------------------------|

e|---------------10----------------10-|---------------8---------------|
B|-5-5----8-8--------5-5----8-8-------|-3-3----6-6--------------------|
G|------------------------------------|------------------[rests]------|
D|------------------------------------|-------------------------------|
A|------------------------------------|-------------------------------|
E|------------------------------------|-------------------------------|

e|---------------10----------------10-|---------------8-------------8-|
B|-5-5----8-8--------5-5----8-8-------|-3-3----6-6-------3-3---6-6----|
G|------------------------------------|-------------------------------|
D|------------------------------------|-------------------------------|
A|------------------------------------|-------------------------------|
E|------------------------------------|-------------------------------|

e|---------------10----------------10-|---------------8-------------8-|
B|-5-5----8-8--------5-5----8-8-------|-3-3----6-6-------3-3---6-6----|
G|------------------------------------|-------------------------------|
D|------------------------------------|-------------------------------|
A|------------------------------------|-------------------------------|
E|------------------------------------|-------------------------------|

e|-1010101010109-9-9-9--|-1010101010108-8-8-8-|
B|-x---x---x---x---x---x---x-x-x-x--|-x---x---x---x---x---x---x-x-x-x-|
G|o7---7---7---7---7---7---6-6-6-6-o|o7---7---7---7---7---7---5-5-5-5o|
D|o--------------------------------o|o-------------------------------o|
A|----------------------------------|---------------------------------|
E|----------------------------------|---------------------------------|
----------Repeat 4x----------
[ Tab from: http://www.guitartabs.cc/tabs/s/strokes/soma_tab_ver_4.html ]
e|-3---------3---------3-----------|
B|-3---------3---------3-----------|
G|-4---------4---------4-----------|
D|-5---------5---------5-----------|end 
A|-5---------5---------5-----------|
E|-3---------3---------3-----------|
  Let chords ring except last one





Guitar 2:

e|-3--------------------3--|----3---------------------3---------------|
B|-3--------------------3--|----3---------------------3---------------|
G|-4--------------------4--|----4---------------------4---------------|
D|-5--------------------5--|----5---------------------5---------------|
A|-5--------------------5--|----5---------------------5---------------|
E|-3--------------------3--|----3---------------------3---------------|
  Let Chords ring except last one

e|-3-----3---------3-----3------3-3-|-1-----1------1-----1----1----1-1|
B|-3-----3---------3-----3------3-3-|-1-----1------1-----1----1----1-1|
G|-4-----4---------4-----4------4-4-|-2-----2------2-----2----2----2-2|
D|-5-----5---------5-----5------5-5-|-3-----3------3-----3----3----3-3|
A|-5-----5---------5-----5------5-5-|-3-----3------3-----3----3----3-3|
E|-3-----3---------3-----3------3-3-|-1-----1------1-----1----1----1-1|

e|-3-----3---------3-----3------3-3-|-1-----1------1-----1----1----1-1|
B|-3-----3---------3-----3------3-3-|-1-----1------1-----1----1----1-1|
G|-4-----4---------4-----4------4-4-|-2-----2------2-----2----2----2-2|
D|-5-----5---------5-----5------5-5-|-3-----3------3-----3----3----3-3|
A|-5-----5---------5-----5------5-5-|-3-----3------3-----3----3----3-3|
E|-3-----3---------3-----3------3-3-|-1-----1------1-----1----1----1-1|

e|-----7-----7---7-----7-----7---7-|-----5-----5---5-----5-----5---5--|
B|---8-----8---------8-----8-------|---6-----6---------6-----6--------|
G|-7-----7-----7---7-----7-----7---|-5-----5-----5---5-----5-----5----|
D|---------------------------------|----------------------------------|
A|---------------------------------|----------------------------------|
E|---------------------------------|----------------------------------|
  Let notes ring  (not quite sure that this is right)

e|-----7-----7---7-----7-----7---7-|-----5-----5---5-----5-----5---5--|
B|---8-----8---------8-----8-------|---6-----6---------6-----6--------|
G|-7-----7-----7---7-----7-----7---|-5-----5-----5---5-----5-----5----|
D|---------------------------------|----------------------------------|
A|---------------------------------|----------------------------------|
E|---------------------------------|----------------------------------|

e|---------------------------------|----------------------------------|
B|-----12-12-12-12-12-12-12-12-----|-----10-10-10-10-10-10-10-10------|
G|o----12-12-12-12-12-12-12-12----o|o----10-10-10-10-10-10-10-10-----o|
D|o----12-12-12-12-12-12-12-12----o|o----10-10-10-10-10-10-10-10-----o|
A|-----10-10-10-10-10-10-10-10-----|-----8-8-8-8-8-8-8-8-------|
E|---------------------------------|----------------------------------|
----------Repeat 2x----------

e|-3----3----3----3----| 3----3----3----3-----------------------------|
B|-3----3----3----3----|-3----3----3----3-----------------------------|
G|-4----4----4----4----|-4----4----4----4-----------------------------|
D|-5----5----5----5----|-5----5----5----5-----------------------------|
A|-5----5----5----5----|-5----5----5----5-----------------------------|
E|-3----3----3----3----|-3----3----3----3-----------------------------|
 Let chords ring except last one



e|-3-----3---------3-----3------3-3-|-1-----1------1-----1----1----1-1|
B|-3-----3---------3-----3------3-3-|-1-----1------1-----1----1----1-1|
G|-4-----4---------4-----4------4-4-|-2-----2------2-----2----2----2-2|
D|-5-----5---------5-----5------5-5-|-3-----3------3-----3----3----3-3|
A|-5-----5---------5-----5------5-5-|-3-----3------3-----3----3----3-3|
E|-3-----3---------3-----3------3-3-|-1-----1------1-----1----1----1-1|

e|-3-----3---------3-----3------3-3-|-1-----1------1-----1----1----1-1|
B|-3-----3---------3-----3------3-3-|-1-----1------1-----1----1----1-1|
G|-4-----4---------4-----4------4-4-|-2-----2------2-----2----2----2-2|
D|-5-----5---------5-----5------5-5-|-3-----3------3-----3----3----3-3|
A|-5-----5---------5-----5------5-5-|-3-----3------3-----3----3----3-3|
E|-3-----3---------3-----3------3-3-|-1-----1------1-----1----1----1-1|

e|-----7-----7---7-----7-----7---7-|-----5-----5---5-----5-----5---5--|
B|---8-----8---------8-----8-------|---6-----6---------6-----6--------|
G|-7-----7-----7---7-----7-----7---|-5-----5-----5---5-----5-----5----|
D|---------------------------------|----------------------------------|
A|---------------------------------|----------------------------------|
E|---------------------------------|----------------------------------|
  Let notes ring

e|-----7-----7---7-----7-----7---7-|-----5-----5---5-----5-----5---5--|
B|---8-----8---------8-----8-------|---6-----6---------6-----6--------|
G|-7-----7-----7---7-----7-----7---|-5-----5-----5---5-----5-----5----|
D|---------------------------------|----------------------------------|
A|---------------------------------|----------------------------------|
E|---------------------------------|----------------------------------|
  
e|---------------------------------|----------------------------------|
B|-----12-12-12-12-12-12-12-12-----|-----10-10-10-10-10-10-10-10------|
G|o----12-12-12-12-12-12-12-12----o|o----10-10-10-10-10-10-10-10-----o|
D|o----12-12-12-12-12-12-12-12----o|o----10-10-10-10-10-10-10-10-----o|
A|-----10-10-10-10-10-10-10-10-----|-----8-8-8-8-8-8-8-8-------|
E|---------------------------------|----------------------------------|
----------Repeat 4x----------

e|-3---------3---------3-----------|
B|-3---------3---------3-----------|
G|-4---------4---------4-----------|
D|-5---------5---------5-----------|end 
A|-5---------5---------5-----------|
E|-3---------3---------3-----------|
  Let chords ring except last one


| /  slide up
| o
| o repeat
| 
=======================================================================
Comments