Strokes - Soma Chords & Tabs

 

Soma Chords & Tabs

Strokes Chords & Tabs

Version: 3 Type: Tab 0 ratings
1 star 2 stars 3 stars 4 stars 5 stars
comments

Soma Tab

The Strokes - Soma


Intro:
[ Tab from: http://www.guitartabs.cc/tabs/s/strokes/soma_tab_ver_3.html ]
E|-------------------------| 
B|---------8-------------8-| 
G|-----8-8-----------8-8---|  
D|-9-9-----------9-9-------|                           
A|-------------------------|  
E|-------------------------|                               
    
Verse 1:
                                            
E|-------------------------------------------------|
B|---------8-------------8-----------6-----------6-|
G|-----8-8----------8-8---------6-6---------6-6----| 
D|-9-9---------9-9----------7-7--------7-7---------|                        
A|-------------------------------------------------|  
E|-------------------------------------------------|                               

Chorus:

e|--9--9--9--9--9--9--8-8-8-8---9--9--9--9--9--9--8-8-8-8-|
B|--0--0--0--0--0--0--0-0-0-0---0--0--0--0--0--0--0-0-0-0-|
G|--7--7--7--7--7--7--6-6-6-6---7--7--7--7--7--7--5-5-5-5-|
D|--------------------------------------------------------|
A|--------------------------------------------------------|
E|--------------------------------------------------------|


Play Order:

Intro: 1x
Verse 1: 5x
Chorus: 4x
Intro: 1x
Verse 1: 5x
Chorus: 6x
Comments