Strokes - Reptilia Chords & Tabs

 

Reptilia Chords & Tabs

Strokes Chords & Tabs

Version: 8 Type: Tab 0 ratings
1 star 2 stars 3 stars 4 stars 5 stars
comments

Reptilia Tab

   
Lead has no part in the Intro, or so I think.

Verse Lead Guitar
E|-------------------------------------------------------------|
B|-------------------------------------------------------------|
G|-7-7--7---------7-7--7-------------------7--------------7----|
D|--------9-7-------------9-7-----6-6--6-9-------6-6--6-9------| x12
A|-------------------------------------------------------------|
E|-------------------------------------------------------------|
Play when the Rhythm guitar starts.

Chorus Lead Guitar
E|-10-10-10-------------------------------------------------11-11-|
B|-12-12-12-10-10-/-12-12-/-14-14-\-12-12-/-14-14-\-10-10---12-12-|
G|----------11-11-/-12-12-/-14-14-\-12-12-/-14-14-\-11-11---------|
D|----------------------------------------------------------------| x6
A|----------------------------------------------------------------|
E|----------------------------------------------------------------|


Solo Part 1
E|-----------------------------------------------------------------|
B|--9-7-7----------------------------------------------------------|
G|-----9-9-7-9-7-6-7-6---------------------------------------------|
D|---------------------9-------------------------------------------| x4
A|-----------------------------------------------------------------|
E|-----------------------------------------------------------------|
[ Tab from: http://www.guitartabs.cc/tabs/s/strokes/reptilia_tab_ver_8.html ]
Solo Part 2
E|---------------------10p9--------------12b14r12-----------12b14-10p9-----|
B|-12b14-10p9---------------10p9-----------------12p10-12-9-----------9b11-|
G|-----------11p9h11------------11p9-11------------------------------------|
D|-------------------12----------------12----------------------------------|
A|-------------------------------------------------------------------------|
E|-------------------------------------------------------------------------|

Solo Part 1 Repeated
E|-----------------------------------------------------------------|
B|--9-7---7--------------------------------------------------------|
G|------9---9-7-9-7-6-7-6------------------------------------------|
D|------------------------9----------------------------------------| x2
A|-----------------------------------------------------------------|
E|-----------------------------------------------------------------|

Verse Repeated
E|-------------------------------------------------------------|
B|-------------------------------------------------------------|
G|-7-7--7---------7-7--7-------------------7--------------7----|
D|--------9-7-------------9-7-----6-6--6-9-------6-6--6-9------| x4
A|-------------------------------------------------------------|
E|-------------------------------------------------------------|

Chorus Repeated
E|-10-10-10-------------------------------------------------11-11-|
B|-12-12-12-10-10-/-12-12-/-14-14-\-12-12-/-14-14-\-10-10---12-12-|
G|----------11-11-/-12-12-/-14-14-\-12-12-/-14-14-\-11-11---------|
D|----------------------------------------------------------------| x6
A|----------------------------------------------------------------|
E|----------------------------------------------------------------|

Outro (The little sound at the end of the song.)
E|----|
B|-10-|
G|-11-|
D|----|
A|----|
E|----|

h - hammer on
p - pull off
b - bend string up
/ - slide up
\ - slide down

I think thats it. Tell me how bad it is at r3d3mp710n@yahoo.com
Comments