Strokes - Reptilia Chords & Tabs

 

Reptilia Chords & Tabs

Strokes Chords & Tabs

Version: 5 Type: Tab 0 ratings
1 star 2 stars 3 stars 4 stars 5 stars
comments

Reptilia Tab

   
-----------------------------------------------------------------
                   Reptilia - The Strokes
-----------------------------------------------------------------
Tabbed by: funeralforafrie


Notes: Thanks to Ray for some of the additions :) (verse & final verse)

Tuning: EADGBe

Okay the other tab for this was allright but....I thought I had to do my own,
I'm addicted thanks to that template, this tab is for lead guitar.

Remember to use lots of effects with this song and
very fuzzy distortion :)

Intro , play each part twice

e|----------------|----------------|-------------------------------|
B|----------------|----------------|-------------------------------|
G|----------------|----------------|-------------------------------|
D|----------------|----------------|-------------------------------|
A|-17-17-17-------|-------------17-|-------------------------------|
E|----------19-17-|-16-16-16-19----|-------------------------------|

Verse


e|-10-10-10-10-10---10-10-10-10-10------------------------------------|
B|-x--x--x--x--x----x--x--x--x--x-------------------------------------|
G|-7--7--7--x--x----7--7--7--x--x-----13-13-13-16-19---13-13-13-16-19-|
D|----------9--7-------------9--7-----x--x--x--x--x----x--x--x--x--x--|
A|------------------------------------10-10-10-14-16---10-10-10-14-16-|
E|--------------------------------------------------------------------|


Pre Chorus & Chorus (I Think)
e|-----------------------------------------------------------------|
B|-15-15--15-10-10--10-12-12--12-14-14--14-12-12-------------------|
G|-16-16--16-11-11--11-12-12--12-14-14--14-12-12-------------------|
D|-16-16--16-11-11--11-12-12--12-14-14--14-12-12-------------------|
A|-14-14--14--9--9---9-10-10--10-12-12--12-10-10-------------------|
E|-----------------------------------------------------------------|
 Continued
e|-----------------------------------------------------------------|
B|-12-14-14--14-10-10--10-15-15------------------------------------|
G|-12-14-12--12-11-11--11-16-16------------------------------------|
D|-12-14-12--12-11-11--11-16-16------------------------------------|
A|-10-12-12--12--9--9---9-14-14------------------------------------|
E|-----------------------------------------------------------------|

While Guitar 1 plays this Guitar 2 plays
[ Tab from: http://www.guitartabs.cc/tabs/s/strokes/reptilia_tab_ver_5.html ]
e|-10-------10-9-------9------------------12---------------------------|
B|----12---------10------12---12-15-14-------14-10---------------------|
G|-------11---------11------12---------14----------11----11------------|
D|----------------------------------------------------12---------------|
A|---------------------------------------------------------------------|
E|---------------------------------------------------------------------|

Solo

Part 1
e|-----------------------------------------------------------------|
B|--9-7---7--------------------------------------------------------|
G|------9---9-7-9-7-6-7-6------Do this 4 times---------------------|
D|------------------------9----------------------------------------|
A|-----------------------------------------------------------------|
E|-----------------------------------------------------------------|
Part 2
e|---------------------10-9--------------12b14r12-----------12b14-10p9-----|
B|-12b14-10p9---------------10p9-----------------12p10-12-9-----------9b11-|
G|-----------11p9h11------------11p9-11------------------------------------|
D|-------------------12----------------12----------------------------------|
A|-------------------------------------------------------------------------|
E|-------------------------------------------------------------------------|

Part 1 Again
e|-----------------------------------------------------------------|
B|--9-7---7--------------------------------------------------------|
G|------9---9-7-9-7-6-7-6------Do this 4 times---------------------|
D|------------------------9----------------------------------------|
A|-----------------------------------------------------------------|
E|-----------------------------------------------------------------|

Final Verse

e|---------------------------------------------------------------------|
B|---------------------------------------------------------------------|
G|---------------------------------------------------------------------|
D|-----9-------9-------11------11--------9-------9-------11------11----|
A|-----9-------9-------11------11--------9-------9-------11------11----|
E|-7-7-7-7-7-7-7-7--9-9-9-9-9-9-9-9--7-7-7-7-7-7-7-7--9-9-9-9-9-9-9-9--|

| / slide up
| \ slide down
| h hammer-on
| p pull-off
| ~ vibrato
| + harmonic
| x Mute note
| b = bend
| r = release
Comments