Strokes - Reptilia Chords & Tabs

 

Reptilia Chords & Tabs

Strokes Chords & Tabs

Version: 11 Type: Tab 0 ratings
1 star 2 stars 3 stars 4 stars 5 stars
comments

Reptilia Tab

Standard tuning etc.
For the less expert guitarist this should provide a manageable but still accurate
sounding tab of the solo split into the different sections.

--------------------------------------------------------------------------|
-9-7--7---------------7--9-7--7-------------------9-7--7----------------7-|
----9---9-7-9-7-6-7-6--------9---9-7-9-7-6-7-6--------9---9-7-9-7-6-7-6---|
-----------------------------------------------9--------------------------|
--------------------------------------------------------------------------|
--------------------------------------------------------------------------|


---------------------|
-9-7--7--------------|
-----9---9-7---------|
-------------9-------|
---------------------|
---------------------|

[ Tab from: http://www.guitartabs.cc/tabs/s/strokes/reptilia_tab_ver_11.html ]
-------------------------------10-9-----------------|
--12--12--10p9-----------------------10p9-----------|
---------------11p9-11--7-----------------11p9-11--7|
----------------------------------------------------|
----------------------------------------------------|
----------------------------------------------------|

-12b13r12---10p9---------------12b13r12---10p9----------|
-----------------12p10--12-9---------------------12--10-|
--------------------------------------------------------|
--------------------------------------------------------|
--------------------------------------------------------|
--------------------------------------------------------|


-----------------------------------------|
-9-7--7---------------7--9-7--7----------|
----9---9-7-9-7-6-7-6--------9---9-7-----|
--------------------------------------9--|
-----------------------------------------|
-----------------------------------------|
Comments