Strokes - Reptilia Correct Chords & Tabs

 

Reptilia Correct Chords & Tabs

Strokes Chords & Tabs

Version: 1 Type: Tab 2 ratings
1 star 2 stars 3 stars 4 stars 5 stars
comments

Reptilia Correct Tab

   
Artist: The Strokes
Title: Reptilia
tabbed by: BigJoelC

This tab is the interpretation of BigJoelC and is most
likely not 100% accurate.

tuning: standard
key: Bm

intro:
      A|--2-2-2-2-2-2-2-2-2-2-2-2-etc. (meant for bass)

verse:
     guitar 1:
         Bm                      E
      E|----                   |----
      B|-3--                   |-0--
      G|-4-- x16               |-1-- x16
      D|-4--                   |-2--
      A|-2--                   |-2--
      E|----                   |-0--

     guitar 2:
      E|-----------------------|-----------------------|
      B|-2-2--2-----2-2--2-----|----------3----------3-|
      G|--------4-2--------4-2-|-1-1--1-4---1-1--1-4---|
      D|-----------------------|-----------------------|    
      A|-----------------------|-----------------------|
      E|-----------------------|-----------------------|

chorus:
     guitar 1:
      E|-10-10--105-5--5/7-7--7/9-9--97-7--7/9-9--95-5--5/10-10-|
      B|-----------------------------------------------------------|
      G|-----------------------------------------------------------|
      D|--9--9---94-4--4/5-5--5/7-7--75-5--5/7-7--74-4--4/9--9--|    
      A|-----------------------------------------------------------|
      E|-----------------------------------------------------------|

     guitar 2:
      E|-10-10-7-10--7-7----7--7-7-10-7--9-9-12-9-- (cont'd on
      B|-----------------10------------------------  next lines)
[ Tab from: http://www.guitartabs.cc/tabs/s/strokes/reptilia_correct_tab.html ]
      E|-7-7-10-7--9-9-12-9--5-5-7-5--10-10-9-7----|
      B|-------------------------------------------|



solo:
      E|--------------------------     ----------------------|
      B|-/9-7---7---------------7-     -/9-7---7-------------|
      G|------9---9-7-9-7-6-7-6--- x3  ------9---9-7-9-7-6---|
      D|--------------------------     --------------------9-|
      A|--------------------------     ----------------------|         
      E|--------------------------     ----------------------|    

      E|------9------------------10-9-------------------|
      B|-10b12--10p7----7-------------12p10-------------|
      G|------------9b11-9b11-7------------11p9-9b11----|
      D|--------------------------------------------12--|
      A|------------------------------------------------|
      E|------------------------------------------------|

      E|-12b13r12-10p9---------------12b13r12-10p9---------|
      B|--------------12p10-10b12-9---------------12--10r9-|
      G|---------------------------------------------------|
      D|---------------------------------------------------|
      A|---------------------------------------------------|           
      E|---------------------------------------------------|

      E|----------------------------------------|
      B|-7---------------------/9-7---7---------|
      G|---9-7-9-7-6-7-6---6--------9---9-7-----|
      D|-----------------9---9--------------9---|
      A|----------------------------------------|         
      E|----------------------------------------| 
Comments