Strokes - Reptilia Chords & Tabs

 

Reptilia Chords & Tabs

Strokes Chords & Tabs

Version: 5 Type: Bass Tab 0 ratings
1 star 2 stars 3 stars 4 stars 5 stars
comments

Reptilia Bass Tab

----------------------------------------------------------------------------
----------------------------------------------------------------------------
                          The Strokes - Reptilia
----------------------------------------------------------------------------
----------------------------------------------------------------------------
tabbed by: r.frat
e-mail: rordawgee@hotmail.com

Intro
G|-4-4-4-4-4-4-4-4-|-4-4-4-4-4-4-4-4-|
D|-----------------|-----------------| x4 (8 bars)
A|-----------------|-----------------|
E|-----------------|-----------------|

When guitar kicks in...
G|-4-4-4-4-4-4-4-4-|-4-4-4-4-4-4-4-4-|-----------------|-----------------|
D|-----------------|-----------------|-2-2-2-2-2-2-2-2-|-2-2-2-2-2-2-2-2-| x4 (16 bars)
A|-----------------|-----------------|-----------------|-----------------|
E|-----------------|-----------------|-----------------|-----------------|

No bass for 8 bars, then...
G|-----------------|-----------------|-----------------|-----------------|
D|-----------------|-----------------|-2-2-2-2-2-2-2-2-|-2-2-2-2-2-2-2-2-| x4 (16 bars)
A|-2-2-2-2-2-2-2-2-|-2-2-2-2-2-2-2-2-|-----------------|-----------------|
E|-----------------|-----------------|-----------------|-----------------|
[ Tab from: http://www.guitartabs.cc/tabs/s/strokes/reptilia_btab_ver_5.html ]
Bass cuts out again (for 4 bars), then...
   1 &  & 3 & 4 &     1 &  & 3 &  &     1 &  & 3 &  &    1 & 2 & 3 & 4 &
G|-----------------|-----------------|-----------------|-7-7-6-6-4-4-----|
D|-----------------|--5-5--5-7-7--7--|--5-5--5-7-7--7--|-------------4-4-| x3
A|-2-2--2-4-4-5-5--|-----------------|-----------------|-----------------|
E|-----------------|-----------------|-----------------|-----------------|
and the 4th and 5th times it's played...
G|-----------------|-----------------|-----------------|-7-7-6-6-4-4-----|
D|-----------------|-5-5-5-5-7-7-7-7-|-5-5-5-5-7-7-7-7-|-------------4-4-|
A|-2-2-2-2-4-4-5-5-|-----------------|-----------------|-----------------|
E|-----------------|-----------------|-----------------|-----------------|

Next part...
G|-4-4-4-4-4-4-4-4-|-4-4-4-4-4-4-4-4-|-----------------|-----------------|
D|-----------------|-----------------|-2-2-2-2-2-2-2-2-|-2-2-2-2-2-2-2-2-| x10 (40 bars)
A|-----------------|-----------------|-----------------|-----------------|
E|-----------------|-----------------|-----------------|-----------------|

No bass for 4 bars, then...
   1 &  & 3 & 4 &     1 &  & 3 &  &     1 &  & 3 &  &    1 & 2 & 3 & 4 &
G|-----------------|-----------------|-----------------|-7-7-6-6-4-4-----|
D|-----------------|--5-5--5-7-7--7--|--5-5--5-7-7--7--|-------------4-4-| x3
A|-2-2--2-4-4-5-5--|-----------------|-----------------|-----------------|
E|-----------------|-----------------|-----------------|-----------------|
4th and 5th time...
G|-----------------|-----------------|-----------------|-7-7-6-6-4-4-----|
D|-----------------|-5-5-5-5-7-7-7-7-|-5-5-5-5-7-7-7-7-|-------------4-4-|
A|-2-2-2-2-4-4-5-5-|-----------------|-----------------|-----------------|
E|-----------------|-----------------|-----------------|-----------------|

Last part (same as intro)...                      ends on:
G|-4-4-4-4-4-4-4-4-|-4-4-4-4-4-4-4-4-|              |-4-||
D|-----------------|-----------------| x4 (8 bars)  |---||
A|-----------------|-----------------|              |---||
E|-----------------|-----------------|              |---||

this is my first tab and i'm 99% sure it's perfect! enjoy!
(feel free to e-mail w/ critiques)
Comments