Strokes - Razor Blade Chords & Tabs

 

Razor Blade Chords & Tabs

Strokes Chords & Tabs

Version: 1 Type: Tab

Razor Blade Tab

Band:  The Strokes
Album: First Impressions of Earth
Song:  Razor Blade
Copyright (c)  (RCA Records) (2005)
Transcribed By: Cameron Hustis
Email:          Wavejet@aol.com



Guitar 1 - Nick Valensi
Guitar 2 - Albert Hammond



Intro

 Guitar 1
|--------------------------|--------------------------|--7-5---5-7---------------|--------------------------|
|-2--3--2--3--3/5--3--2--3-|--------------------------|--7-5-7-5-7---7-5-3-5-7---|-5--3--5--3--5--3--5--3---|
|-2--4--2--4--4/6--4--2--4-|-2--4--2--4--6--4--2------|------7-------7-6-4-6-7---|-6--4--6--4--6--4--6--4---|
|--------------------------|-4--6--4--6--7--6--4------|--------------------------|--------------------------|
|--------------------------|--------------------------|--------------------------|--------------------------|
|--------------------------|--------------------------|--------------------------|--------------------------|
|
|Guitar 2
|--------------------------|-2--2-2---2-2---2--2-2--2-|-2---2---2-2---2---2-2--2-|-2---2---2-2---2---2-2--2-|
|-2---2---2-2---2---2-2--2-|-2--2-2---2-2---2--2-2--2-|-3---3---3-3---3---3-3--3-|-3---3---3-3---3---3-3--3-|
|-2---2---2-2---2---2-2--2-|-2--2-2---2-2---2--2-2--2-|-4---4---4-4---4---4-4--4-|-4---4---4-4---4---4-4--4-|
|-2---2---2-2---2---2-2--2-|-4--4-4---4-4---4--4-4--4-|-4---4---4-4---4---4-4--4-|-4---4---4-4---4---4-4--4-|
|-0---0---0-0---0---0-0--0-|-4--4-4---4-4---4--4-4--4-|-2---2---2-2---2---2-2--2-|-2---2---2-2---2---2-2--2-|
|--------------------------|-2--2-2---2-2---2--2-2--2-|--------------------------|--------------------------|


|--------------------------|--------------------------|--7-5---5-7---------------|--------------------------|
|-2--3--2--3--3/5--3--2--3-|--------------------------|--7-5-7-5-7---7-5-3-5-7---|-5--3--5--3--5--3--5--3---|
|-2--4--2--4--4/6--4--2--4-|-2--4--2--4--6--4--2------|------7-------7-6-4-6-7---|-6--4--6--4--6--4--6--4---|
|--------------------------|-4--6--4--6--7--6--4------|--------------------------|--------------------------|
|--------------------------|--------------------------|--------------------------|--------------------------|
|--------------------------|--------------------------|--------------------------|--------------------------|
|
|
|--------------------------|-2--2-2---2-2---2--2-2--2-|-5---5---5-5---5---5-5--5-|-2---2---2-2---2---2-2--2-|
|-2---2---2-2---2---2-2--2-|-2--2-2---2-2---2--2-2--2-|-3---3---3-3---3---3-3--3-|-3---3---3-3---3---3-3--3-|
|-2---2---2-2---2---2-2--2-|-2--2-2---2-2---2--2-2--2-|-x---x---x-x---x---x-x--x-|-4---4---4-4---4---4-4--4-|
|-2---2---2-2---2---2-2--2-|-4--4-4---4-4---4--4-4--4-|-4---4---4-4---4---4-4--4-|-4---4---4-4---4---4-4--4-|
|-0---0---0-0---0---0-0--0-|-4--4-4---4-4---4--4-4--4-|-2---2---2-2---2---2-2--2-|-2---2---2-2---2---2-2--2-|
|--------------------------|-2--2-2---2-2---2--2-2--2-|--------------------------|--------------------------|






|---------------------------|
|-7----------7----------7\--|
|-7----------7----------7\--|
|---------------------------|
|---------------------------|
|---------------------------|
|
|
|---------------------------|
|-7---7-7---7-7---7-7---7-7-|
|-7---7-7---7-7---7-7---7-7-|
|-7---7-7---7-7---7-7---7-7-|
|-5---5-5---5-5---5-5---5-5-|
|---------------------------|




|---------------------------|
|-2----------2----------2/--|
|-3----------3----------3---|
|---------------------------|
|---------------------------|
|---------------------------|
|
|
|-2---2-2---2-2---2-2---2-2-|
|-3---3-3---3-3---3-3---3-3-|
|-4---4-4---4-4---4-4---4-4-|
|-4---4-4---4-4---4-4---4-4-|
|-2---2-2---2-2---2-2---2-2-|
|---------------------------|




Verse


2x
|-9p5---5-9/12----10-9-----|-10p7---7-10/14---12-10-12|
|-----5----------------10--|------7-------------------|
|--------------------------|--------------------------|
|--------------------------|--------------------------|
|--------------------------|--------------------------|
|--------------------------|--------------------------|
|
|
|-5--5-5--5-5--5-5-5--5-5--|-7--7-7--7-7--7-7-7--7-7--|
|-5--5-5--5-5--5-5-5--5-5--|-7--7-7--7-7--7-7-7--7-7--|
|-6--6-6--6-6--6-6-6--6-6--|-7--7-7--7-7--7-7-7--7-7--|
|--------------------------|--------------------------|
|--------------------------|--------------------------|
|--------------------------|--------------------------|


|-14p12----12--/14--12--9\-|
|-------14-----------------|
|--------------------------|
|--------------------------|
|--------------------------|
|--------------------------|
|
|
|-9--9-9-9--9-9-9--9-------|
|-9--9-9-9--9-9-9--9-------|
|-9--9-9-9--9-9-9--9-------|
|--------------------------|
|--------------------------|
|--------------------------|


|--------------------------|--------------------------|
|--------------------------|--------------------------|
|-9--9-9-9-9--9-9-9-9--9-9-|-9---9---9-9---9-9-9-9----|
|-9--9-9-9-9--9-9-9-9--9-9-|-9---9---9-9---9-9-9-9----|
|-7--7-7-7-7--7-7-7-7--7-7-|-7---7---7-7---7-7-7-7----|
|--------------------------|--------------------------|
|
|
|--------------------------|--------------------------|
|-9--9-9-9-9--9-9-9-9--9-9-|-9---9---9-9---9-9-9-9----|
|-9--9-9-9-9--9-9-9-9--9-9-|-7---7---7-7---7-7-7-7----|
|-9--9-9-9-9--9-9-9-9--9-9-|-9---9---9-9---9-9-9-9----|
|-7--7-7-7-7--7-7-7-7--7-7-|-7---7---7-7---7-7-7-7----|
|--------------------------|--------------------------|



Chorus


Guitars 1 and 2
|--------------------------|-2--2-2---2-2---2--2-2--2-|-2---2---2-2---2---2-2--2-|-2---2---2-2---2---2-2--2-|
|-2---2---2-2---2---2-2--2-|-2--2-2---2-2---2--2-2--2-|-3---3---3-3---3---3-3--3-|-3---3---3-3---3---3-3--3-|
|-2---2---2-2---2---2-2--2-|-2--2-2---2-2---2--2-2--2-|-4---4---4-4---4---4-4--4-|-4---4---4-4---4---4-4--4-|
|-2---2---2-2---2---2-2--2-|-4--4-4---4-4---4--4-4--4-|-4---4---4-4---4---4-4--4-|-4---4---4-4---4---4-4--4-|
|-0---0---0-0---0---0-0--0-|-4--4-4---4-4---4--4-4--4-|-2---2---2-2---2---2-2--2-|-2---2---2-2---2---2-2--2-|
|--------------------------|-2--2-2---2-2---2--2-2--2-|--------------------------|--------------------------|

[ Tab from: http://www.guitartabs.cc/tabs/s/strokes/razor_blade_tab.html ]
(Small section before the second verse)
|----------|
|-14-------|
|----------|
|----------|
|----------|
|----------|
|
|
|----------|
|-2--------|
|-2--------|
|-2--------|
|-0--------|
|----------|


Solo

|7p5---9p5---7p5---9p5---7p5--|7p5---9p5---7p5---9p5---7p5--|
|----5-----5-----5-----5-----5|----7-----7-----7-----7-----7|
|-----------------------------|-----------------------------|
|-----------------------------|-----------------------------|
|-----------------------------|-----------------------------|
|-----------------------------|-----------------------------|
|
|(third guitar track probably done by Albert since he plays this part on stage)
|-----------------------------|-----------------------------|
|-5---------------------------|-7---------------------------|
|-7^(9)-----------------------|-9^(11)----------------------|
|-----------------------------|-----------------------------|
|-----------------------------|-----------------------------|
|-----------------------------|-----------------------------|
|
|
|-----------------------------|-2--2-2---2-2---2--2-2---2---|
|-2---2---2-2---2---2-2---2---|-2--2-2---2-2---2--2-2---2---|
|-2---2---2-2---2---2-2---2---|-2--2-2---2-2---2--2-2---2---|
|-2---2---2-2---2---2-2---2---|-4--4-4---4-4---4--4-4---4---|
|-0---0---0-0---0---0-0---0---|-4--4-4---4-4---4--4-4---4---|
|-----------------------------|-2--2-2---2-2---2--2-2---2---|



|12p10--14p10--12p10--14p10--12p10----|-12---x-10---x-12---10---12\-|
|-----10-----10-----10-----10-----10--|-14---x-12---x-14---12---14\-|
|-------------------------------------|-----------------------------|
|-------------------------------------|-----------------------------|
|-------------------------------------|-----------------------------|
|-------------------------------------|-----------------------------|
|
|
|-------------------------------------|-----------------------------|
|-------------------------------------|-----------------------------|
|-14----------------------------------|-13--------------------------|
|-------------------------------------|-----------------------------|
|-------------------------------------|-----------------------------|
|-------------------------------------|-----------------------------|
|
|
|-2----2----2--2----2----2--2----2----|-2---2---2-2---2---2-2---2---|
|-3----3----3--3----3----3--3----3----|-3---3---3-3---3---3-3---3---|
|-4----4----4--4----4----4--4----4----|-4---4---4-4---4---4-4---4---|
|-4----4----4--4----4----4--4----4----|-4---4---4-4---4---4-4---4---|
|-2----2----2--2----2----2--2----2----|-2---2---2-2---2---2-2---2---|
|-------------------------------------|-----------------------------|


(Hold bend until the middle of the second measure then slowly release bend)
|-----------------------------|-----------------------------|
|-8^(10)----------------------|----10-----10--------7-------|
|-----------------------------|-----------------------------|
|-----------------------------|-----------------------------|
|-----------------------------|-----------------------------|
|-----------------------------|-----------------------------|
|
|
|-----------------------------|-2--2-2---2-2---2--2-2---2---|
|-2---2---2-2---2---2-2---2---|-2--2-2---2-2---2--2-2---2---|
|-2---2---2-2---2---2-2---2---|-2--2-2---2-2---2--2-2---2---|
|-2---2---2-2---2---2-2---2---|-4--4-4---4-4---4--4-4---4---|
|-0---0---0-0---0---0-0---0---|-4--4-4---4-4---4--4-4---4---|
|-----------------------------|-2--2-2---2-2---2--2-2---2---|



|-----------------------------|-12---x-10---x-12---10---12\-|
|-10--------------------------|-14---x-12---x-14---12---14\-|
|-----------------------------|-----------------------------|
|-----------------------------|-----------------------------|
|-----------------------------|-----------------------------|
|-----------------------------|-----------------------------|
|
|
|-2---2---2-2---2---2-2---2---|-2---2---2-2---2---2-2---2---|
|-3---3---3-3---3---3-3---3---|-3---3---3-3---3---3-3---3---|
|-4---4---4-4---4---4-4---4---|-4---4---4-4---4---4-4---4---|
|-4---4---4-4---4---4-4---4---|-4---4---4-4---4---4-4---4---|
|-2---2---2-2---2---2-2---2---|-2---2---2-2---2---2-2---2---|
|-----------------------------|-----------------------------|


(Continued in the chorus)
|-9--------------------12--10-|--9-----12--10--9-----12--10-|
|-10-------------------14--12-|--10----14--12--10----14--12-|
|-----------------------------|-----------------------------|
|-----------------------------|-----------------------------|
|-----------------------------|-----------------------------|
|-----------------------------|-----------------------------|
|
|
|-----------------------------|-2--2-2---2-2---2--2-2---2---|
|-2---2---2-2---2---2-2---2---|-2--2-2---2-2---2--2-2---2---|
|-2---2---2-2---2---2-2---2---|-2--2-2---2-2---2--2-2---2---|
|-2---2---2-2---2---2-2---2---|-4--4-4---4-4---4--4-4---4---|
|-0---0---0-0---0---0-0---0---|-4--4-4---4-4---4--4-4---4---|
|-----------------------------|-2--2-2---2-2---2--2-2---2---|

		
|-9----12--10--9--------------|-----------------------------|
|-10---14--12--10-------------|-----------------------------|
|-----------------------------|-----------------------------|
|-----------------------------|-----------------------------|
|-----------------------------|-----------------------------|
|-----------------------------|-----------------------------|
|
|
|-2---2---2-2---2---2-2---2---|-2---2---2-2---2---2-2---2---|
|-3---3---3-3---3---3-3---3---|-3---3---3-3---3---3-3---3---|
|-4---4---4-4---4---4-4---4---|-4---4---4-4---4---4-4---4---|
|-4---4---4-4---4---4-4---4---|-4---4---4-4---4---4-4---4---|
|-2---2---2-2---2---2-2---2---|-2---2---2-2---2---2-2---2---|
|-----------------------------|-----------------------------|



Outro

|----------|----------|----------|
|-7--------|-2--------|-14-------|
|-7--------|-3--------|----------|
|----------|----------|----------|
|----------|----------|----------|
|----------|----------|----------|
|
|
|----------|-2--------|-5--------|
|-7--------|-3--------|-5--------|
|-7--------|-4--------|-6--------|
|-7--------|-4--------|-7--------|
|-5--------|-2--------|-7--------|
|----------|----------|-5--------|