Strokes - Post Modern Girls Chords & Tabs

 

Post Modern Girls Chords & Tabs

Strokes Chords & Tabs

Version: 2 Type: Tab 0 ratings
1 star 2 stars 3 stars 4 stars 5 stars
comments

Post Modern Girls Tab

   
[][][][][][][][][][][][][][][][][][][][][][][][][][][][][][][][][][[][]
Artist: The Strokes
Title: Post Modern Girls
Album: Unreleased
[][][][][][][][][][][][][][][][][][][][][][][][][][][][][][][][][][[][]

* See bottom of tab for song structure.

Guitar 1 - Nick
Guitar 2 - Albert


Intro - Guitar 1

E||----------9----------7--10--9--||
B||--7-10--7----7-10--7-----------||
G||-------------------------------||
D||-------------------------------||
A||-------------------------------||
E||-------------------------------||

Intro A - Guitar 2

E||--------------------|--------------------||
B||--7------6----------|--5------6----------||
G||--------------------|--------------------||
D||--4------4----------|--4------4----------||
A||--------------------|--------------------||
E||--------------------|--------------------||

Intro B - Guitar 2

E||--------------------------|--------------------------||
B||--7--7--7--6--6--6--6--6--|--5--5--5--6--6--6--6--6--||
G||--6--6--6--6--6--6--6--6--|--6--6--6--6--6--6--6--6--||
D||--4--4--4--4--4--4--4--4--|--4--4--4--4--4--4--4--4--||
A||--------------------------|--------------------------||
E||--------------------------|--------------------------||



Verse A - Guitar 1 

E||--9--9--9--9--9--9--9--9--|--9--9--9--9--9--9--9--9--|
B||--7--7--7--7--7--7--7--7--|--7--7--7--7--7--7--7--7--|
G||--------------------------|--------------------------|
D||--------------------------|--------------------------|
A||--------------------------|--------------------------|
E||--------------------------|--------------------------|
                               *                               
--10-----10-----10-----10-----|--10-----10-----10-----10-----|
------7------7------7------7--|------7------7------7------7--|
------------------------------|------------------------------|
------------------------------|------------------------------|
------------------------------|------------------------------|
------------------------------|------------------------------|

* This replaces last bar the 3rd time Verse is played.
|--10-----10-----10-----10/14---|
|------7------7------7----------|
|-------------------------------|
|-------------------------------|
|-------------------------------|
|-------------------------------|


Verse A - Guitar 2
     A                          A                        
E||--5--5--5--5--5--5--5--5--|--5--5--5--5--5--5--5--5--|
B||--5--5--5--5--5--5--5--5--|--5--5--5--5--5--5--5--5--|
G||--6--6--6--6--6--6--6--6--|--6--6--6--6--6--6--6--6--|
D||--7--7--7--7--7--7--7--7--|--7--7--7--7--7--7--7--7--|
A||--7--7--7--7--7--7--7--7--|--7--7--7--7--7--7--7--7--|
E||--5--5--5--5--5--5--5--5--|--5--5--5--5--5--5--5--5--|

  D                          D                        
--------------------------|--------------------------||
--7--7--7--7--7--7--7--7--|--7--7--7--7--7--7--7--7--||
--7--7--7--7--7--7--7--7--|--7--7--7--7--7--7--7--7--||
--7--7--7--7--7--7--7--7--|--7--7--7--7--7--7--7--7--||
--5--5--5--5--5--5--5--5--|--5--5--5--5--5--5--5--5--||
--------------------------|--------------------------||


[ Tab from: http://www.guitartabs.cc/tabs/s/strokes/post_modern_girls_tab_ver_2.html ]
Verse B - Guitar 1
     F#                              
E||--14--14--14--14--14--14--14--14--|--14--14--14--14--14--14--14--14/-|
B||----------------------------------|----------------------------------|
G||--11--11--11--11--11--11--11--11--|--11--11--11--11--11--11--11--11/-|
D||----------------------------------|----------------------------------|
A||----------------------------------|----------------------------------|
E||----------------------------------|----------------------------------|

  G#                               *                                     
--16--16--16--16--16--16--16--16--|--16--16--16--16--16--16--16--16-||
----------------------------------|---------------------------------||
--13--13--13--13--13--13--13--13--|--13--13--13--13--13--13--13--13-||
----------------------------------|---------------------------------||
----------------------------------|---------------------------------||
----------------------------------|---------------------------------||

* this replaces last bar of Verse B the second time played
--16--16--16--16--16--16--16/--9-||
---------------------------------||
--13--13--13--13--13--13---------||
---------------------------------||
---------------------------------||
---------------------------------||

Verse B - Guitar 2                                                                      
     Bm                         Bm                       
E||--7--7--7--7--7--7--7--7--|--7--7--7--7--7--7--7--7--|
B||--7--7--7--7--7--7--7--7--|--7--7--7--7--7--7--7--7--|
G||--7--7--7--7--7--7--7--7--|--7--7--7--7--7--7--7--7--|
D||--9--9--9--9--9--9--9--9--|--9--9--9--9--9--9--9--9--|
A||--9--9--9--9--9--9--9--9--|--9--9--9--9--9--9--9--9--|
E||--7--7--7--7--7--7--7--7--|--7--7--7--7--7--7--7--7--|

  E                          E                                             
--------------------------|--------------------------||
--9--9--9--9--9--9--9--9--|--9--9--9--9--9--9--9--9--||
--9--9--9--9--9--9--9--9--|--9--9--9--9--9--9--9--9--||
--9--9--9--9--9--9--9--9--|--9--9--9--9--9--9--9--9--||
--7--7--7--7--7--7--7--7--|--7--7--7--7--7--7--7--7--||
--------------------------|--------------------------||



Break - Guitar 1
* Guitar 1 comes in after 4th repeat of Guitar 2's break.
     A                          C#   
E||----------------------------|----------------------------||
B||--10-10-10-10-10-10-10-10/--|--14-14-14-14-14-14-14-14---||
G||----------------------------|----------------------------||
D||--7--7--7--7--7--7--7--7/---|--11-11-11-11-11-11-11-11---||
A||----------------------------|----------------------------||
E||----------------------------|----------------------------||

Break - Guitar 2
* Heavy palm mute - volume begins to increase around 7th repeat.
     D5                                 A5                       
E||----------------------------------|-------------------------||
B||----------------------------------|-------------------------||
G||----------------------------------|-------------------------||
D||--12--12--12--12--12--12--12--12/-|--7--7--7--7--7--7--7--7-||
A||--12--12--12--12--12--12--12--12/-|--7--7--7--7--7--7--7--7-||
E||--10--10--10--10--10--10--10--10/-|--5--5--5--5--5--5--5--5-||





Song Structure
Gtr. 1
 - Intro   (x12)
 - Verse A (x3)  * small change on last bar (see above)
 - Verse B (x2)  * 
 - Verse A (x3)  *
 - Verse B (x2)  *
 - Break   (x6)
 - Verse B (x3)
 - Intro   (x12)
 
 
Gtr. 2
 - Intro A (x4)
 - Intro B (x2)
 - Verse A (x3)  
 - Verse B (x2)
 - Verse A (x3) 
 - Verse B (x2) 
 - Break   (x10)
 - Verse B (x3)
 - Intro A (x2)
 - Intro A (x4)


Email me with comments/questions - wmfulton6@hotmail.com

* Don't forget to turn off word-wrap. *
Comments