Strokes - New York City Cops Chords & Tabs

 

New York City Cops Chords & Tabs

Strokes Chords & Tabs

Version: 1 Type: Tab 1 rating
1 star 2 stars 3 stars 4 stars 5 stars
comments

New York City Cops Tab

   
jeremy gaudet age 14 pei canada


intro

e|-------------------------------------------------------------------
B|-------------------------------------------------------------------
G|-------------------------------------------------------------------
D|-7-5-7-5-7-5-7-5-7-5-7-5-------------------------------------------
A|-7-5-7-5-7-5-7-5-7-5-7-5-------------------------------------------
E|-5-5-5-5-5-5-5-5-5-5-5-5---3-0-3-0--3------------------------------


e|-------------------------12-----------12-12--------------------|
B|-13-13-13-13-13-13-13-13-12--13-13-13-12-12--13-13-13-0--------|
G|-14-14-14-14-14-14-14-14-12--14-14-14-12-12--14-14-14-0--------|
D|-14-14-14-14-14-14-14-14-12--14-14-14-12-12--14-14-14-0--------|
A|-12-12-12-12-12-12-12-12-12--12-12-12-12-12--12-12-12-0--------|
E|---------------------------------------------------------------|
Nina's in the bedroom

e|-------------------------10--------------10-10-----------------|
B|-12-12-12-12-12-12-12-12-10h12--12-12-12-10-10h12--12-12-12-0--|
G|-12-12-12-12-12-12-12-12-10h12--12-12-12-10-10h12--12-12-12-0--|
D|-12-12-12-12-12-12-12-12-10h12--12-12-12-10-10h12--12-12-12-0--|
A|-10-10-10-10-10-10-10-10-10-----10-10-10-10-10-----10-10-10-0--|
E|---------------------------------------------------------------|
She said time to go now                                    but

e|-----------------5----------5-5--------------------------------|
B|-7-7-7-7-7-7-7-7-5h7--7-7-7-5-5h7--7-7-7-0---------------------|
G|-7-7-7-7-7-7-7-7-5h7--7-7-7-5-5h7--7-7-7-0---------------------|
D|-7-7-7-7-7-7-7-7-5h7--7-7-7-5-5h7--7-7-7-0---------------------|
A|-5-5-5-5-5-5-5-5-5----5-5-5-5-5----5-5-5-0---------------------|
E|---------------------------------------------------------------|
Leavin' it ain't easy                      I
[ Tab from: http://www.guitartabs.cc/tabs/s/strokes/new_york_city_cops_tab.html ]
e|---------------------------------|
B|-9-9-9-9-9-9-9-9-9-9-9-9-9-9-9-9-|
G|-9-9-9-9-9-9-9-9-9-9-9-9-9-9-9-9-|
D|-9-9-9-9-9-9-9-9-9-9-9-9-9-9-9-9-|
A|-7-7-7-7-7-7-7-7-7-7-7-7-7-7-7-7-|
E|---------------------------------|
Got to let go
Oh I got to let go          and the

Pre-Chorus
e|-------------------------------------|
B|-12----12----12-12-12-12-12-12-12-12-|
G|-12----12----12-12-12-12-12-12-12-12-|
D|-12----12----12-12-12-12-12-12-12-12-|
A|-10----10----10-10-10-10-10-10-10-10-|
E|-------------------------------------|
Hours they ran slow
I said everynight she just can't stop sayin'

Chorus
e|-8--8--8--8--8--8--8--8--8--8--8--8--8--8--8--8----------------|
B|-8--8--8--8--8--8--8--8--8--8--8--8--8--8--8--8----------------|
G|-9--9--9--9--9--9--9--9--10-10-10-10-10-10-10-10---------------|
D|-10-10-10-10-10-10-10-10-10-10-10-10-10-10-10-10---------------|
A|---------------------------------------------------------------|
E|---------------------------------------------------------------|
New York City cops
New York City cops 

e|-8--8--8--8--8--8--8--8--8--8--8--8--8--8--8--8----------------|
B|-8--8--8--8--8--8--8--8--8--8--8--8--8--8--8--8----------------|
G|-9--9--9--9--9--9--9--9--10-10-10-10-10-10-10-10---------------|
D|-10-10-10-10-10-10-10-10-10-10-10-10-10-10-10-10---------------|
A|---------------------------------------------------------------|
E|---------------------------------------------------------------|
New York City cops
They ain't too smart

e|-8--8--8--8--8--8--8--8--8--8--8--8--8--8--8--8----------------|
B|-8--8--8--8--8--8--8--8--8--8--8--8--8--8--8--8----------------|
G|-9--9--9--9--9--9--9--9--10-10-10-10-10-10-10-10---------------|
D|-10-10-10-10-10-10-10-10-10-10-10-10-10-10-10-10---------------|
A|---------------------------------------------------------------|
E|---------------------------------------------------------------|
Comments