Strokes - New York City Cops Chords & Tabs

 

New York City Cops Chords & Tabs

Strokes Chords & Tabs

Version: 2 Type: Bass Tab 0 ratings
1 star 2 stars 3 stars 4 stars 5 stars
comments

New York City Cops Bass Tab

   
The Strokes - New York City Cops


Tabbed By : ChrKr
e-mail: chrkr@gmx.at

Tuning: Standard

Intro
   A                                G       E   G       E   G
G|--------------------------------|---------------------------------|
D|-7---7---7---7---7---7---7---7--|-5-----------5-----------5-------|
A|--------------------------------|---------7-----------7-----------| 2x
E|--------------------------------|---------------------------------|


   A                                G       E   G       E   G
G|--------------------------------|---------------------------------|
D|--------------------------------|---------------------------------|
A|--------------------------------|---------------------------------| 2x
E|-5---5---5---5---5---5---5---5--|-3-------0---3-------0---3-------|

 
Verse ("Here in the streets...")

   A                                G       E   G       E   G
G|--------------------------------|---------------------------------|
D|--------------------------------|---------------------------------|
A|--------------------------------|---------------------------------| 3x
E|-5---5---5---5---5---5---5---5--|-3-------0---3-------0---3-------|



  A                                 C       D   E
G|--------------------------------|---------------------------------|
D|--------------------------------|---------------------------------|
A|--------------------------------|-3-------5---7-------------------|
E|-5---5---5---5---5---5---5---5--|---------------------------------|



 "Nina's in the Bedroom"

   C      E      D      E       A
G|----------------------------|-----------------------------------------|
D|--------14-----12-----14----|-----------------------------------------|
A|-15-------------------------|-12---12-12---12-12--12---12-12---12-12--|
E|----------------------------|-----------------------------------------|

 
 "She says time to go now"

   G      D      C     D       G
G|---------------------------|------------------------------------------|
D|---------------------------|------------------------------------------|
A|-10------------------------|-10---10-10---10-10---10---10-10---10-10--|
E|--------10-----8-----10----|------------------------------------------|

 
 "But leavin' it ain't easy..."

   D                                C D               C D 
G|--------------------------------|------------------------------------|
D|--------------------------------|------------------------------------|
A|-5---5---5---5---5---5---5---5--|-3/5---5-5---5-5---3/5---5-5---5-5--|
E|--------------------------------|------------------------------------|

  "I've got to let go..."
   B                                D E               D E 
G|--------------------------------|------------------------------------|
D|--------------------------------|------------------------------------|
A|--------------------------------|-5/7---7-7---7-7---5/7---7-7---7-7--|
E|-7---7---7---7---7---7---7---7--|------------------------------------|



   G                                                               E
G|--------------------------------|----------------------------------|
D|-5---5---5-5-5---5---5-5---5-5--|-5---5---5-5-5---5---5-5---5-5-\2-|
A|--------------------------------|----------------------------------|
E|--------------------------------|----------------------------------|

 Chorus: 
  "New York City Cops..."

   C                                F
G|--------------------------------|--------------------------------|
D|--------------------------------|--------------------------------|
A|-3---3---3---3---3---3---3---3--|--------------------------------|
E|--------------------------------|-1---1---1---1---1---1---1---1--|
                                                                    \
                                                                     2x
   C                       E        F               G               /
G|--------------------------------|--------------------------------|
D|--------------------------------|--------------------------------|
A|-3---3---3---3---3---3----------|--------------------------------|
E|-------------------------0---0--|-1---1---1---1---3---3---3---3--|



During Nick's Solo:


   A                                G       E   G       E   G
G|--------------------------------|---------------------------------|
D|--------------------------------|---------------------------------|
A|--------------------------------|---------------------------------| 4x
E|-5---5---5---5---5---5---5---5--|-3-------0---3-------0---3-------|

_____________________________________________________________________
[ Tab from: http://www.guitartabs.cc/tabs/s/strokes/new_york_city_cops_btab_ver_2.html ]
   A                                G       E   G       E   G
G|--------------------------------|---------------------------------|
D|--------------------------------|---------------------------------|
A|--------------------------------|---------------------------------| 2x
E|-5---5---5---5---5---5---5---5--|-3-------0---3-------0---3-------|
   \__________staccato_________/



Drum Solo
                                                              E
G|--------------------------------|--------------------------------|
D|--------------------------------|--------------------------------|
A|--------------------------------|--------------------------------| 
E|--------------------------------|---------------------------12\--|


 "Yes I'm Leavin'..."
   A                                G       E   G       E   G
G|--------------------------------|--------------------------------|
D|--------------------------------|--------------------------------|
A|--------------------------------|--------------------------------| 3x
E|-5---5---5---5---5---5---5---5--|-3-------0---3-------0---3------|



   A                                C       D   E
G|--------------------------------|--------------------------------|
D|--------------------------------|--------------------------------|
A|--------------------------------|-3-------5---7------------------| 3x
E|-5---5---5---5---5---5---5---5--|--------------------------------|



 "Nina's in the Bedroom"

   C      E      D      E       A
G|----------------------------|-----------------------------------------|
D|--------14-----12-----14----|-----------------------------------------|
A|-15-------------------------|-12---12-12---12-12--12---12-12---12-12--|
E|----------------------------|-----------------------------------------|

 
 "She says time to go now"

   G      D      C     D       G
G|---------------------------|------------------------------------------|
D|---------------------------|------------------------------------------|
A|-10------------------------|-10---10-10---10-10---10---10-10---10-10--|
E|--------10-----8-----10----|------------------------------------------|

 
 "Oh, leavin' it ain't easy..."

   D                                D       C       B       A
G|--------------------------------|-7-------5-------4--------------|
D|--------------------------------|-------------------------7------|
A|-5---5---5---5---5---5---5---5--|--------------------------------|
E|--------------------------------|--------------------------------|


   E
G|--------------------------------|--------------------------------|
D|--------------------------------|--------------------------------|
A|-7---7---7---7---7---7---7---7--|-7---7---7---7---7---7---7---7--|
E|--------------------------------|--------------------------------|


 "Trapped in an Appartment"

   C      E      D      E       A
G|----------------------------|-----------------------------------------|
D|--------14-----12-----14----|-----------------------------------------|
A|/15-------------------------|-12---12-12---12-12--12---12-12---12-12--|
E|----------------------------|-----------------------------------------|

 
 "She would not let them get her"

   G      D      C     D       G
G|---------------------------|------------------------------------------|
D|---------------------------|------------------------------------------|
A|-10------------------------|-10---10-10---10-10---10---10-10---10-10--|
E|--------10-----8-----10----|------------------------------------------|


 "She wrote it in a letter"

   D                                C D               C D 
G|--------------------------------|----------------------------------|
D|--------------------------------|----------------------------------|
A|-5---5---5---5---5---5---5---5--|-3/5---5-5---5-5---3/5---5-5---5-5|
E|--------------------------------|----------------------------------|

  "I've got to come clean..."
   B                                D E               D E 
G|--------------------------------|----------------------------------|
D|--------------------------------|----------------------------------|
A|--------------------------------|-5/7---7-7---7-7---5/7---7-7---7-7|
E|-7---7---7---7---7---7---7---7--|----------------------------------|



   G
G|--------------------------------|----------------------------------|
D|-5---5---5-5-5---5---5-5---5-5--|-5---5---5-5-5---5---5-5---5-5----|
A|--------------------------------|-------------------------------/7\|
E|--------------------------------|----------------------------------|



Chous again (2x)

  C
G|-|
D|-|
A|3| let ring...
E|-|

enjoy
Comments