Strokes - Modern Age Chords & Tabs

 

Modern Age Chords & Tabs

Strokes Chords & Tabs

Version: 1 Type: Chords 0 ratings
1 star 2 stars 3 stars 4 stars 5 stars
comments

Modern Age Chords

   
#----------------------------------PLEASE NOTE---------------------------------#
#This file is the author's own work and represents their interpretation of the #
#song. You may only use this file for private study, scholarship, or research. #
#------------------------------------------------------------------------------#

Song: Modern Age
Band: Strokes
By: Dan

Chords: (x= dont play)
          E a d g b E
D7        x 5 7 5 7 5
D7sus4    x 5 7 5 5 5
D         x x 7 7 7 x 
G         x x 5 4 3 x
Em        x x 9 9 8 x
F#m       x x 4 2 2 x
A         x x 7 6 5 x

| |= 1 bar
/=downward slide
Intro:

| D7 | D7sus4 | x4

Verse:
[ Tab from: http://www.guitartabs.cc/tabs/s/strokes/modern_age_crd.html ]
( | d | d | d | d | g | g | g | g |)

e-----------------------------------------
b-----------------------------------------
g-11-11-11-11-9-9-9-9-11-11-11-11-9-9-9-9-
d-x--x--x--x--x-x-x-x-x--x--x--x--x-x-x-x-
a-9--9--9--9--7-7-7-7-9--9--9--9--7-7-7-7-
E-----------------------------------------

e---------------------------------
b---------------------------------
g-9-9-9-9-7-7-7-7-9-9-9-9-7-7-7-7-
d-x-x-x-x-x-x-x-x-x-x-x-x-x-x-x-x-
a-7-7-7-7-5-5-5-5-7-7-7-7-5-5-5-5-
E---------------------------------

Chorus:

| d | d | Em | Em | F#m | F#m | a | a |

Solo: I dont know it all so just improvise over Dm 
      pentatonic scales

Ending:

e-----
b-11/-
g-x/--
d-8/--
a-----
E-----
Comments