Strokes - Last Nite Chords & Tabs

 

Last Nite Chords & Tabs

Strokes Chords & Tabs

Version: 4 Type: Tab 2 ratings
1 star 2 stars 3 stars 4 stars 5 stars
comments

Last Nite Tab

   
Artist : The Strokes
Song   : Last Nite
Album  : Is This It
Tabbed by Nathan

I checked out the live videos for this tab, it's totally correct!
I play this song with my band and it all fits perfectly together.

Riff 1

Guitar 1 (Nick Valensi)
e|---------------------------------|
B|---------------------------------|
G|-5-5-5-5-5-5-5-5-5-5-5-5-5-5-5-5-|
D|---------------------------------|
A|-3-3-3-3-3-3-3-3-3-3-3-3-3-3-3-3-|
E|---------------------------------|

Guitar 2 (Albert Hammond)
e|-------------------------------------------------|
B|-------------------------------------------------|
G|-------------------------------------------------|
D|-10-10-10-10-10-10-10-10-10-10-10-10-10-10-10-10-|
A|-8--8--8--8--8--8--8--8--10-10-10-10-10-10-10-10-|
E|-------------------------------------------------|

Riff 2 - "Last Nite..."

Guitar 1 - plays a shuffle. The chords change with Guitar 2.

e|-8---10---------------------------------------------|
B|-8---10---12---9---7--------------------------------|
G|-9---10---12---9---7--------------------------------|
D|-10--12---12---9---7--------------------------------|
A|-10--12---10---7---5--------------------------------|
E|-8---10---------------------------------------------|

Guitar 2

   x8  x4   x4   x2   x2
e|-8---10---10---12---10-----------|
B|-8---10---12---12---10-----------|
G|-9---10---12---12---10-----------|
D|-10--12---12---14---12-----------|
A|---------------------------------|
E|---------------------------------|
[ Tab from: http://www.guitartabs.cc/tabs/s/strokes/last_nite_tab_ver_4.html ]
Solo - Albert Hammond (bracketed notes are a held bend)

e|-13b15--13p11----11--13b15--13p11----11----|
B|--------------13------------------13-------|
G|----------------------------------------10-|
D|-------------------------------------------|
A|-------------------------------------------|
E|-------------------------------------------|

e|-11----10---------8-----8-----8------------|
B|----10----8-11b13---(13)--(13)--(13)-------|
G|-------------------------------------------|
D|-------------------------------------------|
A|-------------------------------------------|
E|-------------------------------------------|

e|-11----10---------8-----8-----8------------|
B|----10----8-11b13---(13)--(13)--(13)-------|
G|-------------------------------------------|
D|-------------------------------------------|
A|-------------------------------------------|
E|-------------------------------------------|

e|---------------------------8------8----8----8----8----8----8---11b13-|
B|---------------------------8------8----8----8----8----8----8---------|
G|-8----8----8----8----8-----10b12-(10)-(10)-(10)-(10)-(10)-(10)-------|
D|---10---10---10---10---10--------------------------------------------|
A|---------------------------------------------------------------------|
E|---------------------------------------------------------------------|

Nick Valensi chords for solo

e|--8---13-----------|
B|--8---13--12-------|
G|--9---14--12-------|
D|--10--15--12-------|
A|--10------10-------|
E|--8----------------|

Song Order

Intro (Riff 1)
Riff 2
Riff 1
Riff 2
Riff 1 (different rhthym)
Solo
Riff 1
Riff 2
Outro (Riff 1)
Comments