Strokes - Last Nite Chords & Tabs

 

Last Nite Chords & Tabs

Strokes Chords & Tabs

Version: 2 Type: Tab 1 rating
1 star 2 stars 3 stars 4 stars 5 stars
comments

Last Nite Tab

   
#----------------------------------PLEASE NOTE---------------------------------#
#This file is the author's own work and represents their interpretation of the #
#song. You may only use this file for private study, scholarship, or research. #
#------------------------------------------------------------------------------#
#

Artist:     The Strokes
Album:      Is This It?
Song:       Last Nite
Tab Author: Willie D



Intro:



    C
----3--3--3----------------------------------------
----5--5--5----------------------------------------
----5--5--5----------------------------------------
----5--5--5----------------------------------------
----3--3--3--etc.----------------------------------
---------------------------------------------------

First rhythm guitar comes in, then lead plays same thing over it.



Verse: "last nite, she said..."

    C     Dm      G       Em      D      C
----3------5------10------7-------5------3-----------
----5------6------12------8-------7------5-----------
----5------7------12------9-------7------5-----------
----5------7------12------9-------7------5-----------
----3------5------10------7-------5------3-----------
-----------------------------------------------repeat


Lead hit the chords hard on the beat, rhythm plays a shuffle and 
HOLDS it at G. i.e. doesn't play the Em, D, C. He's hard to hear 
but I'm pretty sure that's what he's doing. 



Chorus/bridge?: "people, they don't understand..."


[ Tab from: http://www.guitartabs.cc/tabs/s/strokes/last_nite_tab_ver_2.html ]
    C
----3--3--3----------------------------------------
----5--5--5----------------------------------------
----5--5--5----------------------------------------
----5--5--5----------------------------------------
----3--3--3--etc.----------------------------------
---------------------------------------------------


They both play this. Boring. Instead you can have one
follow the bassline like this:


    F                G
----1--1--1----------3--3--3-----------------------
----1--1--1----------3--3--3-----------------------
----2--2--2----------4--4--4-----------------------
----3--3--3----------5--5--5-----------------------
----3--3--3--etc.----5--5--5--etc.-----------------
----1--1--1----------3--3--3-----------------------




Solo: Lead does this, Rhythm does C, Dm, G

^=bend

----13^---13--11------11---13^---13--11------11-----
------------------13---------------------13--11-----
----------------------------------------------------
----------------------------------------------------
----------------------------------------------------
----------------------------------------------------


#-------11------10----------------------#-----------
#---10------10------10--11^--11^--11^---#-----------
#---10----------------------------------#-----------
#---------------------------------------#-----------
#---------------------------------------#-----------
#---------------------------------------#--x2-------


---------------------------------------------------
---------------------------------------------------
---------------------------------------------------
----13--10--13--10--13--10--13--10--13--10---------
---------------------------------------------------
---------------------------------------------------


---------------------12^--12^--12^-----------------
---------------------------------------------------
----12--12--12--12---------------------------------
----12--12--12--12---------------------------------
---------------------------------------------------
---------------------------------------------------


Have fun.
Comments