Strokes - Last Night Chords & Tabs

 

Last Night Chords & Tabs

Strokes Chords & Tabs

Version: 9 Type: Tab 0 ratings
1 star 2 stars 3 stars 4 stars 5 stars
comments

Last Night Tab

Someone asked for this, so...here it is. I didn't do the rest of the
song 'cause someone already posted it

E-15b(16)--15b--13----15b-15b--13------15b--13---11-------------------|
B------------------15-------------15---13b----13---11--13b(14-14-14---|
G---------------------------------------------------------------------|
D---------------------------------------------------------------------|
A---------------------------------------------------------------------|
E---------------------------------------------------------------------|
[ Tab from: http://www.guitartabs.cc/tabs/s/strokes/last_night_tab_ver_9.html ]
E-----------------13----11------------------------------|
B-13b(14-14-14-14)--13----11--13b(14-14-14-14-14)-12----|
G-------------------------------------------------------|
D-------------------------------------------------------|
A-------------------------------------------------------|
E-------------------------------------------------------|


E------------------------------------|
B------------------------------------|
G--12p9---12p9---12p9---12p9--12---9-|
A------------------------------------|
D------------------------------------|
E------------------------------------|


E-15-15-15-15-15-15-15-15-15-15-15-15-17b--17b--17----|
B-15-15-15-15-15-15-15-15-15-15-15-15-15b--15b--15----|
G-----------------------------------------------------|
A-----------------------------------------------------|
D-----------------------------------------------------|
E-----------------------------------------------------|


there you have it. the strokes are the greatest band of the
modern world!
Comments