Strokes - Last Night Chords & Tabs

 

Last Night Chords & Tabs

Strokes Chords & Tabs

Version: 5 Type: Tab 0 ratings
1 star 2 stars 3 stars 4 stars 5 stars
comments

Last Night Tab

The Strokes - Last Nite
Tabbed and edited by JohnLennon1984
     I've tried really hard to make this sound EXACTLY as it is in the song.
     The song is divided into several different parts to make it easier for you to
     navigate.
     All lyrics are included also.
     I guarantee you'll take a while to get through this tab, but it is well worth it!
     Enjoy.
     Questons/Comments: JLennonGFreeman@aol.com (Let me know what you think of this)


NOTE:
Lyrics are BELOW their corresponding phrase(s)
Fast tempo (it should be cut time, but here it is common time to make it easier)
Where it says "x2" on the right of a chord, it means to play the chord's strumming pattern
TWICE.
The strumming patterns are two measures long.
Some patterns have their own directions on how they are to be played.


~~~~~~~~~~RHYTHM GUITAR (GUITAR 1)~~~~~~~~~~
          mild overdriven distortion



INTRO

                    (accent the 96th quarter note)
                                   >
e----------------------------------5----
B----------------------------------5----
G--5-------------------------------5----
D--5-play 95x (quarter notes)------5----
A--3-------------------------------3----
E---------------------------------------


          STRUMMING PATTERN FOR VERSE 1, 2, AND 3 (strum on dots)

          1 + 2 + 3 + 4 + 1 + 2 + 3 + 4 +
          .   .   .     .   .   . . . . .

          (loop pattern throughout VERSES 1, 2, AND 3)




VERSE 1



e-------------------
B--5----------------
G--5---------------- x2
D--5----------------
A--3----------------
E-------------------

Last night, she said: "Oh, baby, I


e--5----------------
B--6----------------
G--7----------------
D--7----------------
A-------------------
E-------------------

Feel so down. Oh it


e--7----------------
B--8----------------
G--7---------------- x2
D--9----------------
A-------------------
E-------------------

Turns me off, When I feel left out". So


e-------------------
B--5----------------
G--5---------------- x2
D--5----------------
A--3----------------
E-------------------

I, I turned 'round: "Oh, baby, don't


e--5----------------
B--6----------------
G--7----------------
D--7----------------
A-------------------
E-------------------

Care no more, I know


e--7----------------
B--8----------------
G--7---------------- x2
D--9----------------
A-------------------
E-------------------

This for sure, I'm walkin' out that door". Well, I've


e-------------------
B--5----------------
G--5---------------- x2
D--5----------------
A--3----------------
E-------------------

Been in town for just now fifteen minutes now. And Baby, I


e--5----------------
B--6----------------
G--7----------------
D--7----------------
A-------------------
E-------------------

Feel so down. And I 


e--7----------------
B--8----------------
G--7---------------- x2
D--9----------------
A-------------------
E-------------------

And I don't know why; I keep walkin' for miles
 



CHORUS 1

                    (accent the 64th quarter note)
                                   >
e----------------------------------5----
B----------------------------------5----
G--5-------------------------------5----
D--5-play 63x (quarter notes)------5----
A--3-------------------------------3----
E---------------------------------------

See, people they don't understand
No, girlfriends, they can't understand
Your Grandsons, they won't understand
On top of this, I ain't ever gonna understand...




VERSE 2



e-------------------
B--5----------------
G--5---------------- x2
D--5----------------
A--3----------------
E-------------------

Last night, she said: "Oh, baby, don't


e--5----------------
B--6----------------
G--7----------------
D--7----------------
A-------------------
E-------------------

Feel so down. Oh, it


e--7----------------
B--8----------------
G--7---------------- x2
D--9----------------
A-------------------
E-------------------

Turns me off, When I feel left out". So


e-------------------
B--5----------------
G--5---------------- x2
D--5----------------
A--3----------------
E-------------------
[ Tab from: http://www.guitartabs.cc/tabs/s/strokes/last_night_tab_ver_5.html ]
I, I turn 'round: "Oh, baby, gonna


e--5----------------
B--6----------------
G--7----------------
D--7----------------
A-------------------
E-------------------

Be alright", it was a


e--7----------------
B--8----------------
G--7---------------- x2
D--9----------------
A-------------------
E-------------------

Great big lie; 'Cause I left that night, yeah




BRIDGE 1 (play pattern once)

          1 + 2 + 3 + 4 + 1 + 2 + 3 + 4 +
          .   . .   . .     . .   .   .  

e-------------------
B-------------------
G--5----------------
D--5----------------
A--3----------------
E-------------------



BRIDGE 2 (play pattern once)

          1 + 2 + 3 + 4 + 1 + 2 + 3 + 4 +
          .   . .   . .     . .   . . . .
          (palm-mute last three eigth notes in bridge 2)

e-------------------
B-------------------
G--5----------------
D--5----------------
A--3----------------
E-------------------




BRIDGE 3 (play pattern four times)

          1 + 2 + 3 + 4 + 1 + 2 + 3 + 4 +
          .   . .   . .     . .   .   .  

e--8----------------
B--8----------------
G--5----------------
D-------------------
A-------------------
E-------------------




SOLO 1 (play pattern twice for each chord)

          1 + 2 + 3 + 4 + 1 + 2 + 3 + 4 +
          .   .   .     .   .   . . . . .

e-------------------
B--5----------------
G--5----------------
D--5----------------
A--3----------------
E-------------------

e--5----------------
B--6----------------
G--7----------------
D--7----------------
A-------------------
E-------------------



SOLO 2

e--7------------------------------------
B--8------------------------------------
G--7------------------------------------
D--9-play 16x (quarter notes)-----------
A---------------------------------------
E---------------------------------------




CHORUS 2

e---------------------------------------
B---------------------------------------
G--5------------------------------------
D--5-play 61x (quarter notes)-----------
A--3------------------------------------
E---------------------------------------

Oh, people they don't understand
No, girlfriends, they won't understand
In spaceships, they won't understand
And me, I ain't ever gonna understand...




VERSE 3

e-------------------
B--5----------------
G--5---------------- x2
D--5----------------
A--3----------------
E-------------------

Last night, she said: "Oh, baby, I


e--5----------------
B--6----------------
G--7----------------
D--7----------------
A-------------------
E-------------------

Feel so down. See, it


e--7----------------
B--8----------------
G--7---------------- x2
D--9----------------
A-------------------
E-------------------

Turns me off, When I feel left out". So


e-------------------
B--5----------------
G--5---------------- x2
D--5----------------
A--3----------------
E-------------------

I, I turn 'round: "Oh, little girl, I don't


e--5----------------
B--6----------------
G--7----------------
D--7----------------
A-------------------
E-------------------

Care no more, I know


e--7----------------
B--8----------------
G--7---------------- x2
D--9----------------
A-------------------
E-------------------

This for sure, I'm walking out that door,"


e-------------------
B--5----------------
G--5----------------
D--5----------------
A--3----------------
E-------------------

Yeah




OUTRO

          1 + 2 + 3 + 4 + 1 + 2 + 3 + 4 +
          .   .   .     .   .   . . . . .
          (palm-mute last three eigth notes ONLY FOR THE FOLLOWING CHORD)

e-------------------
B--5----------------
G--5----------------
D--5----------------
A--3----------------
E-------------------

e-------------------
B-------------------
G--5---------------- x2
D--5----------------
A--3----------------
E-------------------

                    (accent the 33rd quarter note)
                                   >
e---------------------------------------|
B---------------------------------------|
G--5-------------------------------5----|
D--5-play 32x (quarter notes)------5----|
A--3-------------------------------3----|
E---------------------------------------|

END

NOTE: LEAD GUITAR AND BASS TABS COMING SOON!
Comments