Strokes - Last Night Chords & Tabs

 

Last Night Chords & Tabs

Strokes Chords & Tabs

Version: 4 Type: Tab 0 ratings
1 star 2 stars 3 stars 4 stars 5 stars
comments

Last Night Tab

   
INTRO/CHORUS:

guitar 1

E-------
B-------
G-5-----
D-X-----
A-3-----
E-------


guitar 2
E-----------------
B-----------------
G-----------------
D-10------------10
A--8--X8--then--10 X8
E--8-------------8


VERSE:

guitar 1
  C            D            G
E-----------------------------
B-----------------------------
G-5------------7------------12
D-X---X8 then--X---X4 then---X- X8  -  the bass plays G-E-D here at the
end..but only the bass
A-3------------5------------10
E------------------------------


guitar 2
  C            D            G
E-8------------1------------3-
B-8------------1------------3-
G-9------------2------------4-
D-----------------------------
A-----------------------------
E-----------------------------


SOLO:

Leading into the solo is more C's but guitar 1 plays it up higher like this:
E----
B-13-
G--X-
D-10-
A----
E----

Guitar 1 and bass play C - F - G during the solo


solo:guitar 2

[ Tab from: http://www.guitartabs.cc/tabs/s/strokes/last_night_tab_ver_4.html ]
E-13^15----13^15--11-----11----13^15----13^15--11-----11----
B---------------------13--------------------------13--11--10
G---------------------------------------------------------10
D-----------------------------------------------------------
A-----------------------------------------------------------
E-----------------------------------------------------------



E-11-----10------------8--------8---------8---11-----10------------8--------8---------8
B----10------8--11^13-----11^13----11^13---------10------8--11^13-----11^13----11^13---
G--------------------------------------------------------------------------------------
D--------------------------------------------------------------------------------------
A--------------------------------------------------------------------------------------
E--------------------------------------------------------------------------------------

                            TP->
E---------------------------8-8-8-8-8-8-8-8-8-8--11^13-
B---------------------------8-8-8-8-8-8-8-8-8-8--------
G-8----8----8----8----8--------------------------------
D---10---10---10---10---10-----------------------------
A------------------------------------------------------
E------------------------------------------------------

OUTRO:
guitar 1

E-------
B-------
G-5-----
D-X-----
A-3-----
E-------
Comments