Strokes - Last Night Chords & Tabs

 

Last Night Chords & Tabs

Strokes Chords & Tabs

Version: 10 Type: Tab 0 ratings
1 star 2 stars 3 stars 4 stars 5 stars
comments

Last Night Tab

--------------------------
Artist: The Strokes
Title: Last Nite
Tuning: Standard (EADGBe)
--------------------------

--------------------------
Key:

b - bend
sb - slow bend
* - pick whilst in bend
h - hammer on
p - pick off
--------------------------

--------------------------------------------------------------------------------
This is the solo to 'Last Nite':

(01:58)

          *              *
|-13-sb-15------15p11----11--13b15---15p11----11----|
|---------------------13-------------------13----13-|
|---------------------------------------------------|
|---------------------------------------------------|
|---------------------------------------------------|
|---------------------------------------------------|
[ Tab from: http://www.guitartabs.cc/tabs/s/strokes/last_night_tab_ver_10.html ]
|-11----10------------------------------11----10-----------------------------|
|----10----10--11h12h13-13-11h12h13-13-----10----10-11h12h13-13-11h12h13-13--|
|----------------------------------------------------------------------------|
|----------------------------------------------------------------------------|
|----------------------------------------------------------------------------|
|----------------------------------------------------------------------------|

|-----------------------------------------------------11b12-11b12-----|
|-----------------------------------------------------------------13--|
|-8----8----8----8----8------10h11h12-12-10h11h12-12------------------|
|---10---10---10---10----10-------------------------------------------|
|---------------------------------------------------------------------|
|---------------------------------------------------------------------|

--------------------------------------------------------------------------------
Tabbed by R.Milwain
--------------------------------------------------------------------------------
Comments