Strokes - Last Night Solo Chords & Tabs

 

Last Night Solo Chords & Tabs

Strokes Chords & Tabs

Version: 1 Type: Tab 0 ratings
1 star 2 stars 3 stars 4 stars 5 stars
comments

Last Night Solo Tab

   
#----------------------------------PLEASE NOTE---------------------------------#
#This file is the author's own work and represents their interpretation of the #
#song. You may only use this file for private study, scholarship, or research. #
#------------------------------------------------------------------------------#

Last night solo
The Strokes
tabbed by Ricardo Legazpi
Comments: oobigslimrick1oO@aol.com        

                                                       (w/bend?)
--13b--13-11-8-h11-13----13-11-8-h11-13----------11---10---88-88----11---10---88-88---
-------------------------------------------------10---8-------------10---8----------
------------------------------------------------------------------------------------
------------------------------------------------------------------------------------
------------------------------------------------------------------------------------
------------------------------------------------------------------------------------


------------------------------------------------------------------------------
------------------------------------------------------------------------------
------------------------------------------------------------------------------
-13-10---13-10---13-10-------then just slide in-------------------------------
------------------------------------------------------------------------------
------------------------------------------------------------------------------


#----------------------------------PLEASE NOTE---------------------------------#
#This file is the author's own work and represents their interpretation of the #
#song. You may only use this file for private study, scholarship, or research. #
#------------------------------------------------------------------------------#


e-13b16-13p11----11-13-13p11----------13----11---9-9-9-9-9-9-9-13----11---9-9-9-9-9-9-9--------------------------13-13-13-13-13-13-13-13-13-13-13-13-15-15-15-15-15-15-------
b-------------13-------------13-11-------11----9------------------11----9---------------11p9-11p9-11p9-11p9-11p9-13-13-13-13-13-13-13-13-13-13-13-13-13-13-13-13-13-13-------              
g----------------------------------11----------------------------------------------------------------------------------------------------------------------------------------
D----------------------------------------------------------------------------------------------------------------------------------------------------------------------------
A----------------------------------------------------------------------------------------------------------------------------------------------------------------------------
E----------------------------------------------------------------------------------------------------------------------------------------------------------------------------


p: pull off
h: hamer on
b: bent
  
this is my first tablature... so if you like it let me know
 jose_fakir@hotmail.com      fakir


#----------------------------------PLEASE NOTE---------------------------------#
#This file is the author's own work and represents their interpretation of the #
#song. You may only use this file for private study, scholarship, or research. #
#------------------------------------------------------------------------------#


--------------------------
Artist: The Strokes
Title: Last Nite
Tuning: Standard (EADGBe)
--------------------------

--------------------------
Key:
[ Tab from: http://www.guitartabs.cc/tabs/s/strokes/last_night_solo_tab.html ]
b - bend
sb - slow bend
* - pick whilst in bend
h - hammer on
p - pick off
--------------------------

--------------------------------------------------------------------------------
This is the solo to 'Last Nite':

(01:58)

          *              *
|-13-sb-15------15p11----11--13b15---15p11----11----|
|---------------------13-------------------13----13-|
|---------------------------------------------------|
|---------------------------------------------------|
|---------------------------------------------------|
|---------------------------------------------------|

|-11----10------------------------------11----10-----------------------------|
|----10----10--11h12h13-13-11h12h13-13-----10----10-11h12h13-13-11h12h13-13--|
|----------------------------------------------------------------------------|
|----------------------------------------------------------------------------|
|----------------------------------------------------------------------------|
|----------------------------------------------------------------------------|

|-----------------------------------------------------11b12-11b12-----|
|-----------------------------------------------------------------13--|
|-8----8----8----8----8------10h11h12-12-10h11h12-12------------------|
|---10---10---10---10----10-------------------------------------------|
|---------------------------------------------------------------------|
|---------------------------------------------------------------------|

--------------------------------------------------------------------------------
Tabbed by R.Milwain
--------------------------------------------------------------------------------

#----------------------------------PLEASE NOTE---------------------------------#
#This file is the author's own work and represents their interpretation of the #
#song. You may only use this file for private study, scholarship, or research. #
#------------------------------------------------------------------------------#


Someone asked for this, so...here it is. I didn't do the rest of the 
song 'cause someone already posted it

E-15b(16)--15b--13----15b-15b--13------15b--13---11--------------
B------------------15-------------15---13b----13---11--13b(14-14-14)
G------------------------------------------------------------------
D------------------------------------------------------------------
A--------------------------------------------------------------------
E-----------------------------------------------------------------

E-----------------13----11----------------------
B-13b(14-14-14-14)--13----11--13b(14-14-14-14-14)-12
G---------------------------------------------
D-----------------------------------------------------
A-----------------------------------------------------
E------------------------------------------------------


E-----------------------------------
B-----------------------------------
G--12p9---12p9---12p9---12p9--12---9
A-----------------------------------
D----------------------------------
E-----------------------------------


E-15-15-15-15-15-15-15-15-15-15-15-15-17b--17b--17---
B-15-15-15-15-15-15-15-15-15-15-15-15-15b--15b--15---
G----------------------------------------------------
A--------------------------------------------------
D------------------------------------------------
E------------------------------------------------


there you have it. the strokes are the greatest band of the 
modern world!


 Bookmark this page right now! (Ctrl+D)
Comments