Strokes - Juice Box Chords & Tabs

 

Juice Box Chords & Tabs

Strokes Chords & Tabs

Version: 1 Type: Tab 0 ratings
1 star 2 stars 3 stars 4 stars 5 stars
comments

Juice Box Tab

   
___________________
|Bass Riff (intro)|
'''''''''''''''''''
E|-------------------------------------|
B|-------------------------------------|
G|-------------------------------------|
D|-------------------------------------|
A|---------1-0-------------1-0---------|
E|-0-0-3-0-----3-1-0-0-3-0-----3-1-----|

______
|Riff|
''''''
(metal distortion - ahah bet you were not expecting this from The Strokes)

E|-------------------------------------|
B|-------------------------------------|
G|-9-9-x-7-9-9-x-9-7-7-x-7-----7-7-----|
D|-9-9-x-7-9-9-x-9-7-7-x-7-8-8-7-7-----|
A|-7-7-x-5-7-7-x-7-5-5-x-5-8-8-5-5-----|
E|-------------------------6-6---------|
_______
|Verse|
'''''''

"Nobody can see me, but it's not that easy..."
(only bass riff from intro)

____________
|Pre-Chorus|
''''''''''''

"WHY WON'T YOU COME OVER HEEE-EEERE?"

E|-------------------------------------|
B|-------------------------------------|
G|-------------------------------------|
D|-------------------------------------|
A|---------1-0-------------1-0---------|
E|-0-0-3-0-----3-1-0-0-3-0-----3-1-----|

________
|Chorus|
''''''''

"Hold tight..."
E|----------------------------------------------------------|
B|-3--3----------3--3----------3--3----------3--3-----------|
G|-3--3----------3--3----------3--3----------3--3-----------|
D|-3--3----------3--3----------3--3----------3--3-----------|
A|-1--1--------0-1--1--------0-1--1--------0-1--1---------0-|
E|-----1-0-1-3-------1-0-1-3-------1-0-1-3--------1-0-1-3---|

E|----------------------------------------------------------|
B|-5--5----------5--5----------5--5----------5--5-----------|
G|-5--5----------5--5----------5--5----------5--5-----------|
D|-5--5----------5--5----------5--5----------5--5-----------|
A|-3--3------0-1-3--3------0-1-3--3------0-1-3--3------0-3--|
E|-----0-1-3---------0-1-3---------0-1-3---------0-1-3------|

"Oh, you're so cold"
E|-------------------------------------|
B|-3--3------3--3----------------------|
G|-3--3------3--3----------------------|
D|-3--3------3--3----------------------|
A|-1--1--...-1--1--...-----------------|
E|-------------------------------------|

_____________________
|Solo (AWESOME SOLO)|
'''''''''''''''''''''

(Fast tremolo - you weren't expecting this from The Strokes either eh?)

E|-12-
B|-12-...
G|-12-
D|----
A|----
E|----

(tremolo off here)
[ Tab from: http://www.guitartabs.cc/tabs/s/strokes/juice_box_tab.html ]
E|----------------------------------12-------------|
B|------17-----17-----17-----17-----12-...---14bb--|
G|-15h16--15h16--15h16--15h16--14s12---------14bb--|
D|-------------------------------------------------|
A|-------------------------------------------------|
E|-------------------------------------------------|

E|-------------------------------------------------|
B|-15-15-------------------------------------------|
G|-------------15-14-------18-18-------15-14-------|
D|-------17-14-------17-15-------17-14-------17-15-|
A|-------------------------------------------------|
E|-------------------------------------------------|

E|-------------------------------------------------|
B|-------------------------------------------------|
G|-17-17-------15-14-------16-16-------15-14-------|
D|-------17-14-------17-15-------17-14-------17-15-|
A|-------------------------------------------------|
E|-------------------------------------------------|

E|-------------------------------------------------|
B|-15-15-------------------------------------------|
G|-------------15-14-------18-18-------15-14-------|
D|-------17-14-------17-15-------17-14-------17-15-|
A|-------------------------------------------------|
E|-------------------------------------------------|

E|-----------------------------------------------------------12----|
B|-----------------------------17-15-------17-15-------------12----|..
G|----------14----14-16-14-----------16----------16-14-------12----|
D|-17-14-17----17----------17--------------------------17-14-------|
A|-----------------------------------------------------------------|
E|-----------------------------------------------------------------|

_______
|Verse|
'''''''

Bass riff from intro played on both guitar and bass.


____________
|Pre-Chorus|
''''''''''''

Same riff, with lots of distortion.

________
|Chorus|
''''''''

E|----------------------------------------------------------|
B|-3--3----------3--3----------3--3----------3--3-----------|
G|-3--3----------3--3----------3--3----------3--3-----------|
D|-3--3----------3--3----------3--3----------3--3-----------|
A|-1--1--------0-1--1--------0-1--1--------0-1--1---------0-|
E|-----1-0-1-3-------1-0-1-3-------1-0-1-3--------1-0-1-3---|

E|----------------------------------------------------------|
B|-5--5----------5--5----------5--5----------5--5-----------|
G|-5--5----------5--5----------5--5----------5--5-----------|
D|-5--5----------5--5----------5--5----------5--5-----------|
A|-3--3------0-1-3--3------0-1-3--3------0-1-3--3------0-3--|
E|-----0-1-3---------0-1-3---------0-1-3---------0-1-3------|

"Oh, you're so cold" ... "You're so coooooold!"
E|-----------------------------------------------|
B|-3--3------3--3-----------------------6--6-----|
G|-3--3------3--3-----------------------7--7-----| -> repeat 'til end of the song :)
D|-3--3------3--3-----------------------7--7-----|
A|-1--1--...-1--1--...------------------5--5-----|
E|-----------------------------------------------|
Comments