Strokes - Juice Box Chords & Tabs

 

Juice Box Chords & Tabs

Strokes Chords & Tabs

Version: 1 Type: Bass Tab 0 ratings
1 star 2 stars 3 stars 4 stars 5 stars
comments

Juice Box Bass Tab

The Strokes - Juice Box (New Single)
Tuning - EADG
Tabbed by - Adam Smith

Intro/Verse/Riff

g ----------------|
d ----------------|
a --------1-0-----| x 24
e 0-0-3-0-----3-1-|

Chorus

g ------------------------------------|
d ------------------------------------|
a 7-7---5-7-7---7-5-5---5-----5-5 x 4-|
e ------------------------6-6---------|

Break

g ----------------|
d ----------------|
a 1---1-1-------0-| x 4
e --------0-1-3---|

g ----------------|
d ----------------|
a 3---3-3-------1-| x 4
e --------0-1-3---|

g ----------------|
d ----------------|
a 1---1-1-------0-| x 4
e --------0-1-3---|

g ----------------|
d ----------------|
a 3---3-3-------1-| x 4
e --------0-1-3---|

Link

g ---------------|----------------|----------------|-----------------|
d ---------------|----------------|----------------|-----------------|
a ---------------|----------------|----------------|-----------------|
e 6---6-6-6-6-6-0|-5---5-5-5-5-5-0|-3---3-3-3-3-3-0|-1---1-1-1-1-1-1-|

Riff

g --------------------|
d --------------------|
a --------1-0---- x 8-|
e 0-0-3-0-----3-1-----|

Solo

g ------------------------------------|
d ------------------------------------|
a 7-7---5-7-7---7-5-5---5-----5-5 x 4-|
e ------------------------6-6---------|

Break

g --------------------|
d --------------------|
a --------1-0---- x 8-|
e 0-0-3-0-----3-1-----|

Chorus
[ Tab from: http://www.guitartabs.cc/tabs/s/strokes/juice_box_btab.html ]
g ------------------------------------|
d ------------------------------------|
a 7-7---5-7-7---7-5-5---5-----5-5 x 4-|
e ------------------------6-6---------|

Break

g ----------------|
d ----------------|
a 1---1-1-------0-| x 4
e --------0-1-3---|

g ----------------|
d ----------------|
a 3---3-3-------1-| x 4
e --------0-1-3---|

g ----------------|
d ----------------|
a 1---1-1-------0-| x 4
e --------0-1-3---|

g ----------------|
d ----------------|
a 3---3-3-------1-| x 4
e --------0-1-3---|

Link

g ---------------|----------------|----------------|-----------------|
d ---------------|----------------|----------------|-----------------|
a ---------------|----------------|----------------|-----------------|
e 6---6-6-6-6-6-0|-5---5-5-5-5-5-0|-3---3-3-3-3-3-0|-1---1-1-1-1-1-1-|

Ending

g ------------|
d ------------|
a 5---5-5 x 4-|
e ------------|

g ---------------|----------------|----------------|-----------------|
d ---------------|----------------|----------------|-----------------|
a ---------------|----------------|----------------|-----------------|
e 6---6-6-6-6-6-0|-5---5-5-5-5-5-0|-3---3-3-3-3-3-0|-1---1-1-1-1-1-1-|

g ------------|
d ------------|
a 5---5-5 x 4-|
e ------------|

g ---------------|----------------|----------------|-----------------|
d ---------------|----------------|----------------|-----------------|
a ---------------|----------------|----------------|-----------------|
e 6---6-6-6-6-6-0|-5---5-5-5-5-5-0|-3---3-3-3-3-3-0|-1---1-1-1-1-1-1-|

g ------------|
d ------------|
a 5---5-5 x 4-|
e ------------|

Please rate this tab. If you have any questions just email me smifaye@hotmail.com
Comments