Strokes - Is This It Chords & Tabs

 

Is This It Chords & Tabs

Strokes Chords & Tabs

Version: 9 Type: Tab 0 ratings
1 star 2 stars 3 stars 4 stars 5 stars
comments

Is This It Tab

   
VERSE
Guitar 1 (Dist.)
E|---5---5---5---5----5---5---5---5---6---6---6---6----6---6---6---6-|
B|-6---6---5--------6---6---5-------6---6---5--------6---6---5-------|
G|-------------7----------------7---------------7----------------7---|
D|-------------------------------------------------------------------|
A|-------------------------------------------------------------------|
E|-------------------------------------------------------------------|

CHORUS
E|-----------------------------------------------------------------|
B|-6-3-6-3-6-3-6-3-6-3-6-3-6-3-6-3-5-3-5-3-5-3-5-3-5-3-5-3-5-3-5-3-|
G|-----------------------------------------------------------------|
D|-----------------------------------------------------------------|
A|-----------------------------------------------------------------|
E|-----------------------------------------------------------------|
[ Tab from: http://www.guitartabs.cc/tabs/s/strokes/is_this_it_tab_ver_9.html ]
Guitar 2
E|-------------------------------------------------|
B|-------------------------------------------------|
G|-10-10-10-10-10-10-10-10-10-10-10-10-10-10-10-10-|
D|-10-10-10-10-10-10-10-10-10-10-10-10-10-10-10-10-|
A|-8--8--8--8--8--8--8--8--8--8--8--8--8--8--8--8--|
E|-8--8--8--8--8--8--8--8--8--8--8--8--8--8--8--8--|

E|-------------------------------------------------|
B|-------------------------------------------------|
G|-9--9--9--9--9--9--9--9--9--9--9--9--9--9--9--9--|
D|-10-10-10-10-10-10-10-10-10-10-10-10-10-10-10-10-|
A|-10-10-10-10-10-10-10-10-10-10-10-10-10-10-10-10-|
E|-8--8--8--8--8--8--8--8--8--8--8--8--8--8--8--8--|

VERSE

BRIDGE (either Guitar 1 or 2)
E|-------------------------------------------------|
B|-------------------------------------------------|
G|-9--9--9--9--9--9--9--9--9--9--9--9--9--9--9--9--|
D|-10-10-10-10-10-10-10-10-10-10-10-10-10-10-10-10-|
A|-10-10-10-10-10-10-10-10-10-10-10-10-10-10-10-10-|
E|-8--8--8--8--8--8--8--8--8--8--8--8--8--8--8--8--|

E|-------------------------------------------------|
B|-------------------------------------------------|
G|-10-10-10-10-10-10-10-10-10-10-10-10-10-10-10-10-|
D|-10-10-10-10-10-10-10-10-10-10-10-10-10-10-10-10-|
A|-8--8--8--8--8--8--8--8--8--8--8--8--8--8--8--8--|
E|-8--8--8--8--8--8--8--8--8--8--8--8--8--8--8--8--|

CHORUS

VERSE
Comments