Strokes - Is This It Chords & Tabs

 

Is This It Chords & Tabs

Strokes Chords & Tabs

Version: 7 Type: Tab 0 ratings
1 star 2 stars 3 stars 4 stars 5 stars
comments

Is This It Tab

Intro & Verse
"Can't you see the....."
e------5-5-5-5------------6-6-6-6-   -----
b-----6-6-5-3---x2-------6-6-5-3--x2      |
g---------------------------------        |-----  Play all this Twice
d---------------------------------        |-----
a---------------------------------        |  
e---------------------------------   -----   

Chorus -=Guitar 1=-

e-------------------------------------------------------------
b6-3-6-3-6-3-6-3-6-3-6-3-6-3-6-3---5-3-5-3-5-3-5-3-5-3-5-3-5-3
g-------------------------------------------------------------  x2
d-------------------------------------------------------------
a-------------------------------------------------------------
e-------------------------------------------------------------

-=Guitar 2=-

e--1-1-1-1-1-1-1-1-1-1-1-1-1-1-1-1---0-0-0-0-0-0-0-0-0-0-0-0-0-0-0-0
b--0-0-0-0-0-0-0-0-0-0-0-0-0-0-0-0---5-5-5-5-5-5-5-5-5-5-5-5-5-5-5-5
g------------------------------------5-5-5-5-5-5-5-5-5-5-5-5-5-5-5-5  x2
d-------------------------------------------------------------------
a-------------------------------------------------------------------
e-------------------------------------------------------------------

Verse 2 (Badass Bass comes in)
[ Tab from: http://www.guitartabs.cc/tabs/s/strokes/is_this_it_tab_ver_7.html ]
e------5-5-5-5------------6-6-6-6-   -----
b-----6-6-5-3---x2-------6-6-5-3--x2      |
g---------------------------------        |-----  Play all this Twice
d---------------------------------        |-----
a---------------------------------        |  
e---------------------------------   -----   

Some Other Part at 1:13-1:38
  -=Guitar 1 & 2=-

e---------------
b--10-10-10-10--
g--10-10-10-10--
d--10-10-10-10--
a--8--8--8--8---
e---------------

Verse again

e------5-5-5-5------------6-6-6-6-   -----
b-----6-6-5-3---x2-------6-6-5-3--x2      |
g---------------------------------        |-----  Play all this Twice
d---------------------------------        |-----
a---------------------------------        |  
e---------------------------------   -----   

Last Few Things
2:23 "Cause I'm just way to tierd."

e--6-6-6-6-6-6-6-6-6------------------------------
a--5-5-5-5-5-5-5-5-5------------------------------
b-------------------------------------------------
g-------------------------------------------------
d-------------------------------------------------
a-------------------------------------------------
e-------------------------------------------------

And err that's about it its pertty easy.... Took me awhile to get it sounding
almost the same so yeah....So yeah feel free to e-mail me on this tab or if you
want me totab you a song or some shit atarisguy@aol.com
Comments