Strokes - Is This It Chords & Tabs

 

Is This It Chords & Tabs

Strokes Chords & Tabs

Version: 2 Type: Tab 0 ratings
1 star 2 stars 3 stars 4 stars 5 stars
comments

Is This It Tab

ROLLERBOY5

THE STROKES

"IS THIS IT"

I LISTENED TO THIS SONG UNTIL I GOT IT 
AND PLAYED WITH IT TO CHECK SO I KNOW IT'S RIGHT.


(ONLY LEAD GUITAR)

VERSE

-------------------------------------------------------------------E
-----10--10-10-10--------------------------------------------------B
---10--10--9--7----------------X8----------------------------------G
-------------------------------------------------------------------D
-------------------------------------------------------------------A
-------------------------------------------------------------------E


CHORUS
[ Tab from: http://www.guitartabs.cc/tabs/s/strokes/is_this_it_tab_ver_2.html ]
-------------------------------------------------------------------E
-------------------------------------------------------------------B
---10-7-10-7-10-7-10-7-10-7-10-7-10-7-10-7-------------------------G
-------------------------------------------------------------------D
-------------------------------------------------------------------A
-------------------------------------------------------------------E




-------------------------------------------------------------------E
-------------------------------------------------------------------B
---9-7-9-7-9-7-9-7-9-7-9-7-9-7-9-7---------------------------------G
-------------------------------------------------------------------D
-------------------------------------------------------------------A
-------------------------------------------------------------------E

Comments