Strokes - Is This It Chords & Tabs

 

Is This It Chords & Tabs

Strokes Chords & Tabs

Version: 3 Type: Bass Tab 0 ratings
1 star 2 stars 3 stars 4 stars 5 stars
comments

Is This It Bass Tab

   
Is this It tab by Strokes


Band: The Strokes
Album: Is this it
Song: Is this it (Bass Tab)
Standard tuning Guide E-G
Intro- twice
(00:33)      Part 1
G|------------------------------------------------------------------------------------|
D|------------------------------------------------------------------------------------|
A|--------------------------------------3-3-3-3-3-3-3-3-3-3-3-3-3-3-3-3---------------|
E|-1-1-1-1-1-1-1-1-1-1-1-1-1-1-1------------------------------------------------------|

Listen to the song to get the exact timing

(00:53) Twice     Part 2                                            (01:12)
G|--------------------------------------------------------|---------------------------|
D|-------2-3-5-------------------------2-3-5-------5-7-8--|---------------------------|
A|----0-0---------0-0--3-5-7-------5-6---------5-6--------|---3-3-x-3--3-3-x-3-------|
E|-1-1-1-------1-1-1-----------6-6--6-------6-6-6---------|---------------------------|
[ Tab from: http://www.guitartabs.cc/tabs/s/strokes/is_this_it_btab_ver_3.html ]
                            Part 4
G|------------------------------------------------------------------------------------|
D|----3-3-x-3--3-3-x-3--------------------3-3-x-3--3-3-x-3--------------------------|
A|-----------------------3-3-x3-3-3-x-3---------------------3-3-3-3-3-3-3-3-3-3-3-3-|
E|------------------------------------------------------------------------------------|


 (01:38)Twice                     Part 5
G|------------------------------------------------------------------------------------|
D|------------------------------------------------------------------------------------|
A|---------------------------------1---0----3-3-3-3-3-3-3-3-3-3-3-3-3-3-3-3-----------|
E|-1-1-1-1-1-1-1-1-1-1-1-1-1-1-1------------------------------------------------------|


 (02:02)
G|-----------------------------------------------------------------------------------|
D|-------2-3-5------------------------2-3-5-------5-7-8------------------------------|
A|----0-0---------0-0--3-5-7-------5-6---------5-6--------1-1-1-1-1-1--1---1--------|
E|-1-1-1-------1-1-1-----------6-6--6-------6-6-6------------------------------------|

That's all I sure it's 100% correct. ENJOY!
Tabbed by Mr_t666@hotmail.com
Comments