Strokes - I Cant Win Chords & Tabs

 

I Cant Win Chords & Tabs

Strokes Chords & Tabs

Version: 2 Type: Bass Tab 0 ratings
1 star 2 stars 3 stars 4 stars 5 stars
comments

I Cant Win Bass Tab

   
Wow ok, I was looking at some of the other tabs and some of these were like way off.
So I decided to go ahead and tab it my self.

Standard Tunning:E,A,D,G

Intro
G:---------|
D:---------|
A:---------|
E:----9----|

G:-----------------------------------------|
D:-----------------------------------------|
A:--------------------7-7-7-777-7-7-7-77---|  x2
E:-7-7-7-777-7-7-7-77----------------------|

Verse
G:------------------------------------------------------------------|
D:------------------------------------------------------------------|
A:---------------------------------7-7-7-7-7-7-7-7------------------|  x2
E:-7-7-7-7-7-7-7-7-7-7-7-7-7-7-7-7-----------------9-9-9-9-9-9-9-9--|

Chorus
G:-----------------------------------------|
D:-----------------------------------------|
A:--------------------7-7-7-777-7-7-7-77---|  x2
E:-7-7-7-777-7-7-7-77----------------------|

G:---------------------------------------------------------------|
D:---------------------------------------------------------------|
A:----------------------------------------9-9-9-999-9-9-9-99[x2]-|
E:-5-5-5-555-5-5-5-55--9-9-9-999-9-9-9-99------------------------|
[ Tab from: http://www.guitartabs.cc/tabs/s/strokes/i_cant_win_btab_ver_2.html ]
 Verse
G:------------------------------------------------------------------|
D:------------------------------------------------------------------|
A:---------------------------------7-7-7-7-7-7-7-7------------------|  x2
E:-7-7-7-7-7-7-7-7-7-7-7-7-7-7-7-7-----------------9-9-9-9-9-9-9-9--|

Chorus
G:-----------------------------------------|
D:-----------------------------------------|
A:--------------------7-7-7-777-7-7-7-77---|  x2
E:-7-7-7-777-7-7-7-77----------------------|

G:---------------------------------------------------------------|
D:---------------------------------------------------------------|
A:----------------------------------------9-9-9-999-9-9-9-99[x2]-|
E:-5-5-5-555-5-5-5-55--9-9-9-999-9-9-9-99------------------------|

Solo
G:------------------------------------------------------|
D:------------------------------------------------------|
A:-11-11-11-11-11-11-11-11-11-11-11-11-11-11-11-11[x2]--|
E:------------------------------------------------------|\
                                                          |x2
G:------------------------------------------------------|/
D:------------------------------------------------------|
A:-9-9-9-9-9-9-9-9-9-9-9-9-9-9-9-9[x2]------------------|
E:------------------------------------------------------|

G:---------------------------------|
D:---------------------------------|
A:----------7~----------------7~---|
E:-7~----------------7~------------|

Chorus
G:-----------------------------------------|
D:-----------------------------------------|
A:--------------------7-7-7-777-7-7-7-77---|  x4
E:-7-7-7-777-7-7-7-77----------------------|

Outro
G:---------------------|
D:---------------------|
A:---------------------|
E:-55-55-5-5-555-------|
Comments