Strokes - I Cant Win Chords & Tabs

 

I Cant Win Chords & Tabs

Strokes Chords & Tabs

Version: 1 Type: Bass Tab 0 ratings
1 star 2 stars 3 stars 4 stars 5 stars
comments

I Cant Win Bass Tab

   
Song: I Can't Win
Artist: The Strokes
Album: Room On Fire
Bassist: Nikolai Fraiture

Tabbed by Vox

Previous tab was quite wrong, but this is 100% correct.

Intro
   B                 E
G|-------------------------------------|
D|-9-9-9-999-9-9-999-------------------| [x2]
A|-------------------7-7-7-777-7-7-777-|
E|-------------------------------------|

Verse
   B			  E		    C#
G|------------------------9-9-9-999-9-9-999----------------------------------|
D|-9-9-9-999-9-9-999-[x2]-------------------11-11-11-111111-11-11-111111-----| [x2]
A|---------------------------------------------------------------------------|
E|---------------------------------------------------------------------------|
[ Tab from: http://www.guitartabs.cc/tabs/s/strokes/i_cant_win_btab.html ]
Chorus
   B		     E		       B		 E
G|-------------------------------------------------------------------------|
D|-9-9-9-999-9-9-999-------------------9-9-9-999-9-9-999-------------------|
A|-------------------7-7-7-777-7-7-777-------------------7-7-7-777-7-7-777-|
E|-------------------------------------------------------------------------|
   G#		     C#				  F#
G|-----------------------------------------------------------------------|
D|-6-6-6-666-6-6-666-11-11-11-111111-11-11-111111------------------------|
A|------------------------------------------------9-9-9-999-9-9-999-[x2]-|
E|-----------------------------------------------------------------------|

Solo
   G#				C#
G|--------------------------------------------|
D|-6666666666666666-[x2]----------------------| [x2]
A|--------------------------------------------|
E|-----------------------999999999999999-[x2]-|

Outro
   G#
G|----------|
D|-66-66-66-|
A|----------|
E|----------|
Comments