Strokes - Hard To Explain Chords & Tabs

 

Hard To Explain Chords & Tabs

Strokes Chords & Tabs

Version: 8 Type: Tab 0 ratings
1 star 2 stars 3 stars 4 stars 5 stars
comments

Hard To Explain Tab

Artist:The Strokes
Song:Hard To Explain
Album:Is This It
Tabber:Anthony C. (AKA) Unity Mix Up.


Hey Guys, again I'm here Tabing Out songs And I Came Up With This Pretty Basic Intro
To The Strokes. To Me It works Great So Enjoy!
[ Tab from: http://www.guitartabs.cc/tabs/s/strokes/hard_to_explain_tab_ver_8.html ]
e|-3-3-3-3-3-3-3-3--0-0-0-0-0-0-0-0--3-3-3-3-3-3-3-3-3-3-3-3-3-3-3-3-
B|-3-3-3-3-3-3-3-3--0-0-0-0-0-0-0-0--3-3-3-3-3-3-3-3-3-3-3-3-3-3-3-3-
G|-------------------------------------------------------------------
D|-------------------------------------------------------------------
A|-------------------------------------------------------------------
E|-------------------------------------------------------------------
       *

e|-------------------------------------------------------------------------------
B|-----5------------------5----7--5---------5----7--5----------------------------
G|-5-7---------------7-5----5----------7-5----5----------------------------------
D|-------7---5-----------------------------------------5--7---9--7---5--7---9--7-
A|-------------------------------------------------------------------------------
E|-------------------------------------------------------------------------------
                  
There You Go guys. Thats It. On The D String Im Sorry There Was not enough room.
But 5 7 9 7 is on the D String. Enjoy
Comments