Strokes - Hard To Explain Chords & Tabs

 

Hard To Explain Chords & Tabs

Strokes Chords & Tabs

Version: 6 Type: Tab 0 ratings
1 star 2 stars 3 stars 4 stars 5 stars
comments

Hard To Explain Tab

#----------------------------------PLEASE NOTE---------------------------------#
#This file is the author's own work and represents their interpretation of the #
#song. You may only use this file for private study, scholarship, or research. #
#------------------------------------------------------------------------------#

TITLE: HARD TO EXPLAIN
ARTIST: STROKES
ALBUM: IS THIS IS?
TAB BY: PATRICK O'REILLY (JAYWALKER1985@HOTMAIL.COM)


heres the basic tab for this great song!

STANDARD TUNING:

[ Tab from: http://www.guitartabs.cc/tabs/s/strokes/hard_to_explain_tab_ver_6.html ]
E--3-3-3-3-3-3-3-3-0-0-0-0-0-0-0-0-3-3-3-3-3-3-3-3----------
B--3-3-3-3-3-3-3-3-0-0-0-0-0-0-0-0-3-3-3-3-3-3-3-3----------
G-----------------------------------------------------------
D-----------------------------------------------------------
A-----------------------------------------------------------
E-----------------------------------------------------------

E-----------------------------------------------------------
B----------------7---9---11---9---7---9--11/-9--------------
G------------------9---9----9---9---9--9--------------------
D----5/-7/-9/-7---------------------------------------------
A-----------------------------------------------------------
E-----------------------------------------------------------

E-----------------------------------------------------------
B-----------------------------------------------------------
G-----------------------------------------------------------
D---5-5--7-7--9--7----5-5--7-7--9--7------------------------
A-----------------------------------------------------------
E-----------------------------------------------------------


the chords are g, and em

any comments, email me!

paddy-
Comments