Strokes - Hard To Explain Chords & Tabs

 

Hard To Explain Chords & Tabs

Strokes Chords & Tabs

Version: 4 Type: Tab 0 ratings
1 star 2 stars 3 stars 4 stars 5 stars
comments

Hard To Explain Tab

   
hey this is only my 2nd tab ever, my first was last nite, but i think they're both right

Intro/Verse-Guitar 1:
e-----------------------------------
B-88888888-77777777-8888888888888888
G-00000000-00000000-0000000000000000
D-----------------------------------
A-----------------------------------
E-----------------------------------
[ Tab from: http://www.guitartabs.cc/tabs/s/strokes/hard_to_explain_tab_ver_4.html ]
Intro/Verse-Guitar 2:
e-----------------------------------------------------
B-------------------------------7---------------------
G-5-7-9----7-5-9-7-5-9-7-5-9-7-5----------------------
D-------7-------7-----7-----7-----55-77-5-9--55-77-5-9
A-----------------------------------------------------
E-----------------------------------------------------

Pre-Chorus:
e----------------------------------------
B----------------------------------------
G----------------------------------------
D---------------------4444-4444-2222-2222
A-5555-5555-2222-2222-2222-2222-0000-0000
E-3333-3333-0000-0000--------------------

Chorus:
e-----------------------------------------
B-----------------------------------------
G-4-7-4-5-4---4-7-4-5-4---4---------4-----
D------------------------5-5-7-5---5-5-7-5
A-----------------------------------------
E-----------------------------------------

Comments