Strokes - Hard To Explain Chords & Tabs

 

Hard To Explain Chords & Tabs

Strokes Chords & Tabs

Version: 3 Type: Tab 0 ratings
1 star 2 stars 3 stars 4 stars 5 stars
comments

Hard To Explain Tab

this 100% right the other guys are dumbasses

    I didnt put the bridge  ill do it later look for it


---33333333222222223333333333333333-----------------------------
-------------------------------------------3----5---------------
---------------------------------------5-------------2----0-----
----------------------------------------------------------------
----------------------------------------------------------------
----------------------------------------------------------------

[ Tab from: http://www.guitartabs.cc/tabs/s/strokes/hard_to_explain_tab_ver_3.html ]
---3-------5-------7-------5-------3-------5-------7\5---------
-------5-------5-------5-------5-------5-------5---------------
---------------------------------------------------------------
---------------------------------------------------------------
---------------------------------------------------------------
---------------------------------------------------------------


----------------------------------------------------------------
----------------------------------------------------------------
--0---2---4---2--------0---2---4---2----------------------------
----------------------------------------------------------------
----------------------------------------------------------------
----------------------------------------------------------------




              
Comments