Strokes - Hard To Explain Chords & Tabs

 

Hard To Explain Chords & Tabs

Strokes Chords & Tabs

Version: 2 Type: Tab 0 ratings
1 star 2 stars 3 stars 4 stars 5 stars
comments

Hard To Explain Tab

mike gunda
the strokes-hard to explain
mikegunda@hotmail.com

This is my first atempt at a tab so I hope it doesn't suck.
i noticed some of the origional was wrong and i added other bits

STANDARD TUNING:

E--3-3-3-3-3-3-3-3-2-2-2-2-2-2-2-2-3-3-3-3-3-3-3-3----------
B--3-3-3-3-3-3-3-3-0-0-0-0-0-0-0-0-3-3-3-3-3-3-3-3----------
G-----------------------------------------------------------
D-----------------------------------------------------------
A-----------------------------------------------------------
E-----------------------------------------------------------


E-----------------------------------------------------------
B-----------------------------------------------------------
G----5-7-9-2----0------7------9-------11-----9--------------
D------------------------(7)-----(7)----(7)-----------------
A-----------------------------------------------------------
E-----------------------------------------------------------
 ()= not sure if the  notes are there just listen closely.

E-----------------------------------------------------------
B-----------------------------------------------------------
G-----------------------------------------------------------
D---5--7--9--7-----5--7--9--7-------------------------------
A-----------------------------------------------------------
E-----------------------------------------------------------

bass bit:

G-----------------------------------------------------------
D-----------------------------------------------------------
A-----------------------------------------------------------
E-----333333-77--333333--55---------------------------------

[ Tab from: http://www.guitartabs.cc/tabs/s/strokes/hard_to_explain_tab_ver_2.html ]
this is a wee bit where Jules sings something about ".....Carolina"
E-----------------------------------------------------------
B-----------------------------------------------------------
G----55-----00-------44------22-----------------------------
D-----------------------------------------------------------
A-----------------------------------------------------------
E-----------------------------------------------------------

chorus bit:
E-----------------------------------------------------------
B-----3-----------------------------------------------------
G---4----4--5--4--------------------------------------------
D-----------------------------------------------------------
A-----------------------------------------------------------
E-----------------------------------------------------------

couple of times

E-----------------------------------------------------------
B-----------------------------------------------------------
G---------4-------------------------------------------------
D-------5----5---7---5--------------------------------------
A-----------------------------------------------------------
E-----------------------------------------------------------

couple of times

the chords in the chorus are something like

E-----------------------------------------------------------
B-----------------------------------------------------------
G-----------------------------------------------------------
D--5----9---7-----5----9---7-----------5--------------------
A--5----9---7-----5----9---7-----------5--------------------
E--3----7---5-----3----7---5-----------3--------------------

not sure about the chords i think it might just be G throughout
the chorus

i dunno.
it probably still isn't perfect.
Ta.
Comments