Strokes - Hard To Explain Chords & Tabs

 

Hard To Explain Chords & Tabs

Strokes Chords & Tabs

Version: 1 Type: Bass Tab 0 ratings
1 star 2 stars 3 stars 4 stars 5 stars
comments

Hard To Explain Bass Tab

   
Band:The Strokes
Song:Hard to Explain
Album:Is this It (2001)
Bassist:Nikolai Fraiture
Tabber: TITO (shelbylover67@yahoo.com)
Notes:easyish, pretty sure it's 100% right, mail me comments/corrections 

riff a
g|---------------|---------------|---------------|---------------|
d|---------------|---------------|---------------|---------------|
a|---------------|7-7-7-7-7-7-7-7|0-0-0-0-0-0-0-0|0-0-0-0-0-0-0-0|
e|3-3-3-3-3-3-3-3|---------------|---------------|---------------|

g|---------------|---------------|---------------|---------------|
d|---------------|---------------|---------------|---------------|
a|---------------|---------------|5-5-5-5-5-5-5-5|5-5-5-5-5-5-5-5|
e|3-3-3-3-3-3-3-3|3-3-3-3-3-3-3-3|---------------|---------------|

g|---------------|---------------|---------------|---------------|
d|---------------|---------------|---------------|---------------|
a|5-5-5-5-5-5-5-5|5-5-5-5-5-5-5-5|3-3-3-3-3-3-3-3|3-3-3-3-3-3-3-3|
e|---------------|---------------|---------------|---------------|

g|---------------|---------------|---------------|---------------|
a|0-0-0-0-0-0-0-0|0-0-0-0-0-0-0-0|---------------|---------------|
d|---------------|---------------|---------------|---------------|
e|---------------|---------------|---------------|---------------|
(the bit u do twice before part c)

 riff b
g|---------------|--------4-4-4-4|---------------|---------------|
d|5-5-5-5-5-5-5-5|5-5-5-5--------|5-5-5-5-5-5-5-5|5-5-5-5-7-7-7-7|
a|---------------|---------------|---------------|---------------|
e|---------------|---------------|---------------|---------------|
[ Tab from: http://www.guitartabs.cc/tabs/s/strokes/hard_to_explain_btab.html ]
 riff c
g|---------------|---------------|---------------|---------------|
d|5-5-5-5-5-5-5-5|5-5-5-5-5-5-5-5|2-2-2-2-2-2-2-2|2-2-2-2-2-2-2-2|
a|---------------|---------------|---------------|---------------|
e|---------------|---------------|---------------|---------------|

g|4-4-4-4-4-4-4-4|4-4-4-4-4-4-4-4|2-2-2-2-2-2-2-2|2-2-2-2-2-2-2-2|
d|---------------|---------------|---------------|---------------|
a|---------------|---------------|---------------|---------------|
e|---------------|---------------|---------------|---------------|

 riff d
g|---------------|---------------|4-4-4-4-4-4-4-4|2-2-2-2-2-2-2-2|
d|5-5-5-5-5-5-5-5|5-5-5-5-5-5-5-5|---------------|---------------|
a|---------------|---------------|---------------|---------------|
e|---------------|---------------|---------------|---------------|

 riff e
g|---------------|---------------|4-4-4----------|---------------|
d|5-5-5-5-5-5-5-5|5-5-5-5-5-5-5-5|---------------|---------------|
a|---------------|---------------|---------------|---------------|
e|---------------|---------------|---------------|---------------|

 riff f
g|---------------|---------------|4-4-4-4-4-4-4-4|2-2-2----------|
d|5-5-5-5-5-5-5-5|5-5-5-5-5-5-5-5|---------------|---------------|
a|---------------|---------------|---------------|---------------|
e|---------------|---------------|---------------|---------------|

riff a
riff b
riff a
riff b
riff a (last bit twice)
riff c x 2
riff d x 3
riff e
*2 seconds silence*
riff a
riff b
riff a (last bit twice)
riff c x 2
riff d x 3
riff f 


       
      Email: shelbylover67@yahoo.com
     
Comments