Strokes - Elephant Song Chords & Tabs

 

Elephant Song Chords & Tabs

Strokes Chords & Tabs

Version: 1 Type: Tab 0 ratings
1 star 2 stars 3 stars 4 stars 5 stars
comments

Elephant Song Tab

Elephant Song-Albert Hammond Jr. & Julian Casablancas
This Is A Song Written In 1999 by Mr. Hammond And Mr. Casablancas
Later Heard And Performed On The Fan Club CD By The Strokes
-----------------------------------------------------------------
Tabbed by: Fernando Maravilla
Email: i_heart_interpol@hotmail.com
I Heard This Song And IN One Day I Figured Out Most Of IT...Not To Brag Of Course.
But Seriously If You Have Corrections Let Me Know

Tuning: Standard (EADGBe)

Slight Distortion/Overdrive Throughout The Whole Song (they use overdrive but distortion
should do the trick)

0:01-Main Riff

e|-----------10--12--10------------------------------------------|
B|---10h12-------------------------------------------------------|
G|---------------------------------------------------------------|3x
D|---------------------------------------------------------------|
A|---------------------------------------------------------------|
E|---------------------------------------------------------------|

e|---9h10p9-10-9-------------------------------------------------|
B|---------------------------------------------------------------|
G|---------------------------------------------------------------|3x
D|---------------------------------------------------------------|
A|---------------------------------------------------------------|
E|---------------------------------------------------------------|


e|---10-9----9---------------------------------------------------|
B|--------12-----------------------------------------------------|
G|---------------------------------------------------------------|1x
D|---------------------------------------------------------------|
A|---------------------------------------------------------------|
E|---------------------------------------------------------------|
Then You Repeat The Same Pattern Until...

0:51-Bridge

e|----5-----7----------------------------------------------------|
B|-------------88888888-7777777-88888888-77777777----------------|
G|---------------------------------------------------------------|
D|---------------------------------------------------------------|
A|---------------------------------------------------------------|
E|---------------------------------------------------------------|

e|---------------------------------------------------------------|
B|----1010101010101010-77777777-88888888-77777777/---------------|
G|---------------------------------------------------------------|
D|---------------------------------------------------------------|
A|---------------------------------------------------------------|
E|---------------------------------------------------------------|
Then Back To The Main Riff

1:08-Main Riff
[ Tab from: http://www.guitartabs.cc/tabs/s/strokes/elephant_song_tab.html ]
e|-----------10--12--10------------------------------------------|
B|---10h12-------------------------------------------------------|
G|---------------------------------------------------------------|3x
D|---------------------------------------------------------------|
A|---------------------------------------------------------------|
E|---------------------------------------------------------------|

e|---9h10p9-10-9-------------------------------------------------|
B|---------------------------------------------------------------|
G|---------------------------------------------------------------|3x
D|---------------------------------------------------------------|
A|---------------------------------------------------------------|
E|---------------------------------------------------------------|


e|---10-9----9---------------------------------------------------|
B|--------12-----------------------------------------------------|
G|---------------------------------------------------------------|1x
D|---------------------------------------------------------------|
A|---------------------------------------------------------------|
E|---------------------------------------------------------------|

Then At 1:40 The Other Bridge

e|--1414141414141414-1515151515151515-1212121212121212-----------|
B|---------------------------------------------------------------|
G|---------------------------------------------------------------|
D|---------------------------------------------------------------|
A|---------------------------------------------------------------|
E|---------------------------------------------------------------|

e|---14141414141414141414141414141414-1515151515151515-----------|
B|---------------------------------------------------------------|
G|---------------------------------------------------------------|
D|---------------------------------------------------------------|
A|---------------------------------------------------------------|
E|---------------------------------------------------------------|

e|----1212121212121212-1414141414141414--------------------------|
B|---------------------------------------------------------------|
G|---------------------------------------------------------------|
D|---------------------------------------------------------------|
A|---------------------------------------------------------------|
E|---------------------------------------------------------------|

That Goes On Until 1:57 Then The Solo/Outro:
e|----9-12-9-11-9----9--9----------------------------------------|
B|----------------11----12b--------------------------------------|
G|---------------------------------------------------------------|
D|---------------------------------------------------------------|
A|---------------------------------------------------------------|
E|---------------------------------------------------------------|

Please Rate,

Thanks.
Comments