Strokes - Electricityscape Chords & Tabs

 

Electricityscape Chords & Tabs

Strokes Chords & Tabs

Version: 1 Type: Tab

Electricityscape Tab

Nick

Intro

|------------------------------------------------------------------|
|------------------------------------------------------------------|
|------------------------------------------------------------------|
|------6-----6---------5-----5---------6-----6---------5-----5-----|
|--4-7---4-7---4-7-4-6---4-6---4-6-4-7---4-7---4-7-4-6---4-6---4-6-|
|------------------------------------------------------------------|

Verse (X4)

|------------------------------------------------------------------|
|------------------------------------------------------------------|
|--------------------------------------3-----3---------3-----3-----|
|------6-----6---------5-----5-------4-----4-----4---4-----4-----4-|
|--4-7---4-7---4-7-4-6---4-6---4-6-4-----4-----4---4-----4-----4---|
|------------------------------------------------------------------|

Verse 2

|------------------------------------------------------------------|
|------------------------------------------------------------------|
|------4-----4---------4-----4-------------------------------------|
|----1-----1-----1---2-----2-----2-----6-----6---------6-----6-----|
|--2-----2-----2---4-----4-----4---4-7---4-7---4-7-4-7---4-7---4-7-|
|------------------------------------------------------------------|

|--------------------------------------------------|
|----------------------2-----2---------2-----2-----|
|------4-----4-------2-----2-----2---2-----2-----2-|
|----1-----1-----1-4-----4-----4---4-----4-----4---|
|--2-----2-----2-----------------------------------|
|--------------------------------------------------|

Verse (x2)

|------------------------------------------------------------------|
|------------------------------------------------------------------|
|--------------------------------------3-----3---------3-----3-----|
|------6-----6---------5-----5-------4-----4-----4---4-----4-----4-|
|--4-7---4-7---4-7-4-6---4-6---4-6-4-----4-----4---4-----4-----4---|
|------------------------------------------------------------------|

Verse 2

|------------------------------------------------------------------|
|------------------------------------------------------------------|
|------4-----4---------4-----4-------------------------------------|
|----1-----1-----1---2-----2-----2-----6-----6---------6-----6-----|
|--2-----2-----2---4-----4-----4---4-7---4-7---4-7-4-7---4-7---4-7-|
|------------------------------------------------------------------|

|--------------------------------------------------|
|----------------------2-----2---------2-----2-----|
|------4-----4-------2-----2-----2---2-----2-----2-|
|----1-----1-----1-4-----4-----4---4-----4-----4---|
|--2-----2-----2-----------------------------------|
|--------------------------------------------------|

Chorus

|----------------------------------------------------------|
|--------12----------12--------9-------9-------5-------5---|
|-----13----13----13----13---9---9---9---9---6---6---6---6-|
|--13----------13----------9-------9-------6-------6-------|
|----------------------------------------------------------|
|----------------------------------------------------------|

|-----------------------------------9----------9----|
|--------12----------12----------11---11----11---11-|
|-----11----11----11----11-11-11---------11---------|
|--13----------13-----------------------------------|
|---------------------------------------------------|
|---------------------------------------------------|

Solo

|----------------------------|
|--12--14-12-11-12-16-14-11--|
|----------------------------|
|--9---11-9--8--9--13-11-8---|
|----------------------------|
|----------------------------|

|-----------------------------------------------------------------------|
|-----------12----12----12----14----16----16-14-11---14-12-9---12-11----|
|--------------------------------------------------------------------11-|
|--10-11-13----13----13----13----13----13-------------------------------|
|-----------------------------------------------------------------------|
|-----------------------------------------------------------------------|
[ Tab from: http://www.guitartabs.cc/tabs/s/strokes/electricityscape_tab.html ]
|----------------------------|
|--12--14-12-11-12-16-14-11--|
|----------------------------|
|--9---11-9--8--9--13-11-8---|
|----------------------------|
|----------------------------|

Intro Riff


|------------------------------------------------------------------|
|------------------------------------------------------------------|
|------------------------------------------------------------------|
|------6-----6---------5-----5---------6-----6---------5-----5-----|
|--4-7---4-7---4-7-4-6---4-6---4-6-4-7---4-7---4-7-4-6---4-6---4-6-|
|------------------------------------------------------------------|

Verse (x2)

|------------------------------------------------------------------|
|------------------------------------------------------------------|
|--------------------------------------3-----3---------3-----3-----|
|------6-----6---------5-----5-------4-----4-----4---4-----4-----4-|
|--4-7---4-7---4-7-4-6---4-6---4-6-4-----4-----4---4-----4-----4---|
|------------------------------------------------------------------|

Verse 2

|------------------------------------------------------------------|
|------------------------------------------------------------------|
|------4-----4---------4-----4-------------------------------------|
|----1-----1-----1---2-----2-----2-----6-----6---------6-----6-----|
|--2-----2-----2---4-----4-----4---4-7---4-7---4-7-4-7---4-7---4-7-|
|------------------------------------------------------------------|

|------------------------------------------------------------------|
|--------------------------------------2-----2---------2-----2-----|
|------4-----4---------4-----4-------2-----2-----2---2-----2-----2-|
|----1-----1-----1---1-----1-----1-4-----4-----4---4-----4-----4---|
|--2-----2-----2---2-----2-----2-----------------------------------|
|------------------------------------------------------------------|

Chorus

|----------------------------------------------------------|
|--------12----------12--------9-------9-------5-------5---|
|-----13----13----13----13---9---9---9---9---6---6---6---6-|
|--13----------13----------9-------9-------6-------6-------|
|----------------------------------------------------------|
|----------------------------------------------------------|

|-----------------------------------9----------9----|
|--------12----------12----------11---11----11---11-|
|-----11----11----11----11-11-11---------11---------|
|--13----------13-----------------------------------|
|---------------------------------------------------|
|---------------------------------------------------|

Verse 2

|------------------------------------------------------------------|
|------------------------------------------------------------------|
|------4-----4---------4-----4-------------------------------------|
|----1-----1-----1---2-----2-----2-----6-----6---------6-----6-----|
|--2-----2-----2---4-----4-----4---4-7---4-7---4-7-4-7---4-7---4-7-|
|------------------------------------------------------------------|

|------------------------------------------------------------------|
|--------------------------------------2-----2---------2-----2-----|
|------4-----4---------4-----4-------2-----2-----2---2-----2-----2-|
|----1-----1-----1---1-----1-----1-4-----4-----4---4-----4-----4---|
|--2-----2-----2---2-----2-----2-----------------------------------|
|------------------------------------------------------------------|


Solo

|----------------------------|
|--12--14-12-11-12-16-14-11--|
|----------------------------|
|--9---11-9--8--9--13-11-8---|
|----------------------------|
|----------------------------|

|-----------------------------------------------------------------------|
|-----------12----12----12----14----16----16-14-11---14-12-9---12-11----|
|--------------------------------------------------------------------11-|
|--10-11-13----13----13----13----13----13-------------------------------|
|-----------------------------------------------------------------------|
|-----------------------------------------------------------------------|

|----------------------------|
|--12--14-12-11-12-16-14-11--|
|----------------------------|
|--9---11-9--8--9--13-11-8---|
|----------------------------|
|----------------------------|