Strokes - Between Love And Hate Chords & Tabs

 

Between Love And Hate Chords & Tabs

Strokes Chords & Tabs

Version: 1 Type: Bass Tab 0 ratings
1 star 2 stars 3 stars 4 stars 5 stars
comments

Between Love And Hate Bass Tab

   
Artist: The Strokes
Title: Between Love & Hate 
Album: Room On Fire 
Tabbed By: Uriel  M.M   
[][][][][][][][][][][][][][][][][][][][][][][][][][][][][][][][][][[][]

Bass.
Intro.
G||------------------------------|
D||------------------------------|
A||------------------------------|
E||----5----9--7---10----9--7----|

Verso A.
G||---------------------------------------------------------------|
D||---------------------------------------------------------------|
A||----0-0-0-0-0-0-0-0-0---0-0-0-0-0-0-0-0-0---4-4-4-4-4-4-4-4-4--|
E||---------------------------------------------------------------|



G||---------------------------------------------------------------|
D||---------------------------------------------------------------|
A||----2-2-2-2-2-2-2-2-2---5-5-5-5-5-5-5-5-5---5-5-5-5-5-5-5-5-5--|
E||---------------------------------------------------------------|

G||---------------------------------------------------------------|
D||---------------------------------------------------------------|
A||----4-4-4-4-4-4-4-4-4---2-2-2-2-2-2-2-2-2----------------------|
E||---------------------------------------------------------------|

Verse B.
G||----------------------------------------------------------|
D||----------------------------------------------------------|
A||-----------------5--5--5--5----------------5--5--5--5-----|
E||----5--5--5--5-0------------0-5--5--5--5-0------------0---|
[ Tab from: http://www.guitartabs.cc/tabs/s/strokes/between_love_and_hate_btab.html ]
G||----------------------------------------------------------|
D||----------------------------------------------------------|
A||-----------------5--5--5--5----------------5--5--5--5-----|
E||----5--5--5--5-0------------0-5--5--5--5-0----------------|

Coro.
G||--------------------------------------------------------------------|
D||--------------------------------------------------------------------|
A||-----------------------------------2-2-2-2-2-2-2-2------------------|
E||---5-5-5-5-5-5-5-5-0-0-0-0-0-0-0-0-----------------0-0-0-0-0-0-0-0--|

G||--------------------------------------------------------------------|
D||--------------------------------------------------------------------|
A||-----------------------------------2-2-2-2-2-2-2-2/7-7-7-7-7-7-7-7--|
E||---5-5-5-5-5-5-5-5-0-0-0-0-0-0-0-0----------------------------------|

Solo.                 x40                    x32                      
G||-----------------------|----------------------|
D||-----------------------|----------------------|
A||---0-0-0-0-0-0-0-0-0-0-|-5-5-5-5-5-5-5-5-5-5--|
E||-----------------------|----------------------|

Again the Intro:
Again the Verso A:
Again the Verso B:

Coro.
G||--------------------------------------------------------------------|
D||--------------------------------------------------------------------|
A||-----------------------------------2-2-2-2-2-2-2-2------------------|
E||---5-5-5-5-5-5-5-5-0-0-0-0-0-0-0-0-----------------0-0-0-0-0-0-0-0--|

G||--------------------------------------------------------------------|
D||--------------------------------------------------------------------|
A||-----------------------------------2-2-2-2-2-2-2-2/7(x16)-----------|
E||---5-5-5-5-5-5-5-5-0-0-0-0-0-0-0-0------------------------8-end.----|
Comments