Strokes - Automatic Stop Chords & Tabs

 

Automatic Stop Chords & Tabs

Strokes Chords & Tabs

Version: 4 Type: Tab 0 ratings
1 star 2 stars 3 stars 4 stars 5 stars
comments

Automatic Stop Tab

-------------------------------------------------------------------------------
			     Automatic Stop - Strokes
-------------------------------------------------------------------------------
Artist: The Strokes
Title: Automatic Stop
Album: Room On Fire (RCA 2003)

Tabbed by: Josh R.
Email: stationx_zero@hotmail.com

hope everyone enjoy this tab since it's the most accurate 
automatic stop chorus solo so far!

Tuning: Standard


Chorus solo:


e|---6---------6--------6-----------|---4---------4---------4----------|
B|-------7---------7----------------|-------6---------6----------------|
G|-----6---6-----6---6----6---------|-----6---6-----6---6-----6--------|
D|----------------------------------|----------------------------------|
A|----------------------------------|----------------------------------|
E|----------------------------------|----------------------------------|


[ Tab from: http://www.guitartabs.cc/tabs/s/strokes/automatic_stop_tab_ver_4.html ]
e|---2---------2---------2----------|---2---------2---------2----------|
B|-------4---------4----------------|-------4---------4----------------|
G|-----3---3-----3---3-----3--------|-----3---3-----3---3-----3--------|
D|----------------------------------|----------------------------------|
A|----------------------------------|----------------------------------|
E|----------------------------------|----------------------------------|



e|---4---------4------------4-------|---4---------4-----4--------------|
B|-------7---------7-6-7--------7---|-------7---------------7----------|
G|-----5---5-----5------------5---5-|-----5---5-----------4---4--------|
D|----------------------------------|----------------------------------|
A|----------------------------------|----------------------------------|
E|----------------------------------|----------------------------------|



e|---4---------4-----4--------------|---4---------4--------------------|
B|-------7---------------7----------|-------7--------------------------|
G|-----4---4-----4-----4---4--------|-----4---4-----4------------------|
D|----------------------------------|----------------------------------|
A|----------------------------------|----------------------------------|
E|----------------------------------|----------------------------------|

========================================================================
Comments