Stroke 9 - Vacuum Bag Chords & Tabs

 

Vacuum Bag Chords & Tabs

Stroke 9 Chords & Tabs

Version: 1 Type: Tab 1 rating
1 star 2 stars 3 stars 4 stars 5 stars
comments

Vacuum Bag Tab

Vacuum Bag, by Stroke 9, CD: Rip It Off

Intro:
e -----------------------------------
B -----3-----3---3------3-----3---3--
G ---2-----2----------2-----2--------
D -0-----0-----0----0-----0-----0----
A -----------------------------------
E -----------------------------------

Verse riff :
e -----------------------------------------------------------------------
B -----3-----3---3-------3-----3---3-------------------------------------
G ---2-----2-----------2-----2------------------------------2-2-0--------
D -0-----0-----0-------------------------2------2------0-0--------4-2-0--
A -------------------2-----2-----2-----0---4--0---4-4--------------------
E -----------------------------------------------------------------------

Pre-chorus:
e ----------------------------------
B -3~-------------------------------
G -2~-------2-----2---2------2---2--
D -0~-----0-----0---0------0---0----
A -0~---0-----0----------0----------
E ----------------------------------

CHORUS:
e ----------------------------------------------------------------------
B ----------------------------------------------------------------------
G -7-7-7-7-7-7-7-7--4-4-4-4-4-4-4-4-------------------------------------
D -7-7-7-7-7-7-7-7--4-4-4-4-4-4-4-4--7-7-7-7-7-7-7-7--5-5-5-5--7-7-7-7--
A -5-5-5-5-5-5-5-5--2-2-2-2-2-2-2-2--7-7-7-7-7-7-7-7--5-5-5-5--7-7-7-7--
E -----------------------------------5-5-5-5-5-5-5-5--3-3-3-3--5-5-5-5--
[ Tab from: http://www.guitartabs.cc/tabs/s/stroke_9/vacuum_bag_tab.html ]
Second verse: 
e -2-2-----2-2-----0-0-----3-3--
B -3-3-----3-3-----2-2-----3-3--
G -2-2-----4-4-----2-2-----0-0--
D -0-0-----4-4-----2-2-----0-0--
A ---------2-2-----0-0-----2-2--
E -------------------------3-3--

Bridge:
e ----------------------------------------------------|--------------------------------
B ----------------------------------------------------|--------------------------------
G ------------------------------------7-7-7-7-7-7-7-7-|-------------------4-4-4-4--7~--
D ----------5-5-5-5-5-5-5-5-----------7-7-7-7-7-7-7-7-|-5-5-5-5--7-7-7-7--4-4-4-4--6~--
A -0-2-0----5-5-5-5-5-5-5-5----0---4--5-5-5-5-5-5-5-5-|-5-5-5-5--7-7-7-7--2-2-2-2--5~--
E -------2--3-3-3-3-3-3-3-3--3---3--------------------|-3-3-3-3--5-5-5-5---------------

3rd verse:
e ------------0---------------------------------0----------------2---|--0~--
B -------3------3---------3--3-2-3---------3------3---------3------3-|--3~--
G -----2----2-----------2----------------2----2-----------2----2-----|--2~--
D ---0----------------0----------------0----------------0------------|--0~--
A -0----------------0----------------0----------------0--------------|------
E -------------------------------------------------------------------|------


e -5-5-5--2-3-2---2---5-5-5--2-3-2---2---3-3-3-3-2-0-----3-2-0----3-2-0----
B --------------3------------------3-----------------3---------3--------3--
G -------------------------------------------------------------------------
D -------------------------------------------------------------------------
A -------------------------------------------------------------------------
E -------------------------------------------------------------------------
Comments