Stroke 9 - Tail Of The Sun Chords & Tabs

 

Tail Of The Sun Chords & Tabs

Stroke 9 Chords & Tabs

Version: 1 Type: Tab 0 ratings
1 star 2 stars 3 stars 4 stars 5 stars
comments

Tail Of The Sun Tab

   
E inverted then add your pinkie on the g string 11th fret, switch up to
some kinda funky a chord, then back to that eaddsomething, then add a 
sus something at the end...make sure you add some purcusive strums in
there to get it to sound right.

[ Tab from: http://www.guitartabs.cc/tabs/s/stroke_9/tail_of_the_sun_tab.html ]
main
e--------------------------------------------------------------------
b--------------------------------------------------------------------
g--9------11----/13-----13---11--------11---9-------11--9---8-------
d -9------9------9------11---11---11---9----9---9---9---9---9--------
a--11-----11-----11-----12---12---12---11---11--11--11--11--9-------------------
E--------------------------------------------------------------------

pre-chourus thing
simple e and a , leave top two strings open and low E
(first time through strum that same b chord as in the intro)

chorus (d, some kinda a, c#m7, Fm
       (d, a thing, F#m, F#m {don't play that c#m7 the even times})

e----0----------------2--
b----7-----0----5-----2--
g----7-----6----4-----2--
d----0-----6----6-----4--
a----------0----4-----4--
E---------------------2--

thats about it guys, let me know what you think
Comments