Stroke 9 - Little Black Backpack Chords & Tabs

 

Little Black Backpack Chords & Tabs

Stroke 9 Chords & Tabs

Version: 2 Type: Tab 0 ratings
1 star 2 stars 3 stars 4 stars 5 stars
comments

Little Black Backpack Tab

   
Person: Gerry Corsi

song: Little Black Packback

artist: Stroke 9

tab: Stroke 9
Little Black Backpack
Transcribed by Gerry Corsi
listen for amount of times each chord is played

Intro        C?    D    C?              C?
e|------------3----2----3---------------3---2-0-3--
b|------------3----3----3---------------3---3-3-3--
g|---------0--0----2----0------------0--0---2-2-0--
D|-2---4------2---------2----2---4------2-------2--
A|------------3---------3---------------3-------3--
E|-------------------------------------------------

Verses
e|------------3-------------------|
b|------------3----------0--0-----|
g|---------0--0-------2--0--0-----|
D|-2---4------2---4---------2-----|    4x's each verse
A|------------3-------------3-----|
E|--------------------------------|

Pre Chorus
e|----------------------------------------------0---|
b|------0----------1-----------1-------------3------|
g|---------0----------0-----------0-------2---------|
D|---0-----------2----------2----------0------------|
A|------------0----------3--------------------------|
E|-3------------------------------------------------|

Chorus
e|-3--3--0--2--|
b|-3--3--1--3--|
g|-0--0--0--2--|
D|-0--2--2-----|    2x's each Chorus
A|-2--3--3-----|
E|-3-----------|

Bridge
[ Tab from: http://www.guitartabs.cc/tabs/s/stroke_9/little_black_backpack_tab_ver_2.html ]
e|-3--3--2--0--|
b|-3--3--3--1--|
g|-0--0--2--0--|
D|-2--0-----2--|    2x's 
A|-2--2-----3--|
E|-0--3--------|

Solo
e|---------------------------------------------14-15-14--
b|5-5-5-5/11-12--5-5-5-5/11-12--15-15-17-15-------------12
g|------------------------------------------16------------
D|--------------------------------------------------------
A|--------------------------------------------------------
E|--------------------------------------------------------

e|---------------------------------------------------------
b|----12------12-----12------12--4-4-4-2-2-2-4-4-4-2-2-2-0-
g|-14---14-14---14-14---14-14------------------------------
D|---------------------------------------------------------
A|---------------------------------------------------------
E|---------------------------------------------------------
  ^part missing right there (sorry i cant figure out)
2nd pre-chorus
e|---------------------------------------------------------
b|---------------------------------------------------------
g|---------------------------------------------------------
D|---------------------------------------------------------
A|-------------0-0-0-0-0-0-3-3-3-3-3-3-5-5-5-5-5-5--------
E|-3-3-3-3-3-3--------------------------------------------
this is muted   right before it goes back to chorus at end

Song Goes
intro
verse
pre
chorus
intro
verse
pre
chorus
bridge
solo
2nd pre
chorus
The End
Comments