Stroke 9 - Little Black Backpack Chords & Tabs

 

Little Black Backpack Chords & Tabs

Stroke 9 Chords & Tabs

Version: 1 Type: Bass Tab 0 ratings
1 star 2 stars 3 stars 4 stars 5 stars
comments

Little Black Backpack Bass Tab

Stroke 9          
Little Black Backpack

Tabbed by : Booga1 (Member of the Bass Tab Archive Tabbing Army)




The time signature may not be exactly right, but once you know the notes the
rest is easy right??? :)  I believe that the opening and slower parts are in
3/4, whereas the chorus and faster parts I believe are in 4/4...




(Intro/verse)


G|---|---|---2---|---|--------|---|-------|---|---------|---|---2---|---|
D|-R-|-2-|-0---0-|---|------0-|-2-|-0-0---|---|-------0-|-2-|-0---0-|---|
A|---|---|-------|-3-|-3-3----|---|-----0-|-3-|-3-(3)---|---|-------|-3-|
E|---|---|-------|---|--------|---|-------|---|---------|---|-------|---|




G|--------|---|-------|---|---------|---|---2---|---|--------|---|-------|---|
D|------0-|-2-|-0-0---|---|-------0-|-2-|-0---0-|---|------0-|-2-|-0-0---|---|
A|-3-3----|---|-----0-|-3-|-3-(3)---|---|-------|-3-|-3-3----|---|-----0-|-3-|
E|--------|---|-------|---|---------|---|-------|---|--------|---|-------|---|




[ Tab from: http://www.guitartabs.cc/tabs/s/stroke_9/little_black_backpack_btab.html ]
   (Chorus)
   (4/4?)
 
G|---|---|---|--------|---------|---------|---------|-------------------------|
D|-R-|-R-|-R-|-R------|---------|-----0-0-|---------|-------------0-0-0-0-0-0-|
A|---|---|---|--------|-----0-0-|-3-3-----|-----0-0-|-3-3-3-3-3-3-------------|
E|---|---|---|---15/3-|-3-3-----|---------|-3-3-----|-------------------------|




G|-------------|---0---------|---------------|-----0-------|-------------|
D|-------------|-------4-0---|---------------|---0---0-----|-------------|
A|-----0-0-0-2-|-3---3-----0-|---5---0-0-0-2-|-3-------3-0-|-----0-0-0-2-|
E|-3-3---------|-------------|-3---3---------|-------------|-3-3---------|



 
G|---0---------|---------------|-----0-------|---|
D|-------4-0---|---------------|---0---0-----|---|
A|-3---3-----0-|---5---0-0-0-2-|-3-------3-0-|-3-|
E|-------------|-3---3---------|-------------|---|




  (Bridge)

G|---------|-------------|-----2-0---|---------|---------|-------------|
D|---------|-----2-2-2-2-|-0-0-----4-|---------|---------|-----2-2-2-2-|
A|-3-2-0---|-------------|-----------|-3-3-3---|-3-2-0---|-------------|
E|-------3-|-0-0---------|-----------|-------3-|-------3-|-0-0---------|




G|---------|-------------|
D|-0-0-0-0-|-------------|
A|---------|-3-2-0-2-0---|
E|---------|-----------3-|

Comments