Stroke 9 - Letters Chords & Tabs

 

Letters Chords & Tabs

Stroke 9 Chords & Tabs

Version: 1 Type: Tab 0 ratings
1 star 2 stars 3 stars 4 stars 5 stars
comments

Letters Tab

   
#----------------------------------PLEASE NOTE---------------------------------#
#This file is the author's own work and represents their interpretation of the #
#song. You may only use this file for private study, scholarship, or research. #
#------------------------------------------------------------------------------#

“Letters” by Stroke 9
Tab by Jay Bartholomew

Yeah I started tabbing this but got kinda lazy. 
You can easily figure it all out from the intro and chords provided.
[ Tab from: http://www.guitartabs.cc/tabs/s/stroke_9/letters_tab.html ]
Guitar 1 (acoustic; capo 2nd fret; first chord upstroke)
  C/B C           G              D              Bm
E|-0--0-0--0-0-0--3--3-3--3-3-3--2--2-2--2-2-2--2--2-2--2-2-2-|
B|-0--1-1--1-1-1--3--3-3--3-3-3--3--3-3--3-3-3--3--3-3--3-3-3-|
G|-0--0-0--0-0-0--0--0-0--0-0-0--2--2-2--2-2-2--4--4-4--4-4-4-|
D|-2--2-2--2-2-2--0--0-0--0-0-0--0--0-0--0-0-0--4--4-4--4-4-4-|
A|-3--3-3--3-3-3--2--2-2--2-2-2-----------------2--2-2--2-2-2-|
E|----------------3--3-3--3-3-3-------------------------------|

Guitar 1
E|-----3-----3---3-----3-----3---3-----5-----5---5---7-----7-------|
B|---5---5-----------3---3-----------7---7-------------7-----7---7-|
G|-5-------5---5---0-------0---0---7-------7---7---7-----7-----7---|  
D|-----------------------------------------------------------------|
A|-----------------------------------------------------------------|
E|-----------------------------------------------------------------|

Guitar 2 (electric/distortion; capo 2nd fret)
E|---------------------------------------------------|
B|---------------------------------------------------|
G|-5-------------------------------7-----------------|  
D|-5---------------5---------------7---------------9-|
A|-3---------------5---------------5---------------9-|
E|-----------------3-------------------------------7-|
Comments