Stroke 9 - Latest Disaster Chords & Tabs

 

Latest Disaster Chords & Tabs

Stroke 9 Chords & Tabs

Version: 1 Type: Tab 0 ratings
1 star 2 stars 3 stars 4 stars 5 stars
comments

Latest Disaster Tab

Artist: Stroke 9
Song: Latest Disaster
Album: Rip it Off

Intro:                *
E-----------------|  |-------------------------|
B-----------------|  |-------------------------|
G--666--666--666--|  |--666--666--666--6-------|
D--666--666--666--|  |--666--666--666--6-4--4--|
A--444--444--444--|  |--444--444--444--4-4--4--| 2x
E--444--444--444--|  |--444--444--444----2--2--|

Guitar 2 *( This is the little riff played throughout the song ):

E-0-0-0-0-0-1-3-3-3-3-1-0-0-0-0-0-1-3---|
B-------------------------------------1-|
G---------------------------------------|
D---------------------------------------|
A---------------------------------------|
E---------------------------------------|

Verse:                                            *
E-----------------|     |-------------------------|
B-----------------|     |-------------------------|
G--666--666--666--|     |--666--666--666--6-------|
D--666--666--666--|     |--666--666--666--6-4--4--|
A--444--444--444--| 2x  |--444--444--444--4-4--4--| 2x
E--444--444--444--|     |--444--444--444----2--2--|

Pre Chorus:
E-----------------|    |---|
B-----------------|    |---|
G--6666-----------|    |-6-|
D--6666-6-444444--|    |-6-|
A--4444-6-444444--| 3x |-4-|
E-------4-222222--|    |---|
[ Tab from: http://www.guitartabs.cc/tabs/s/stroke_9/latest_disaster_tab.html ]
Chorus:
E------------------------------------------------------------|
B------------------------------------------------------------|
G----------------------66666666------------------------------|
D--66666666--44444444--66666666--66666666--4444444444444444--|
A--66666666--44444444--44444444--66666666--4444444444444444--|Pause then Repeat
E--44444444--22222222------------44444444--2222222222222222--|

Fill:
E-----------------|
B-----------------|
G--666--666--666--|
D--666--666--666--|
A--444--444--444--|
E--444--444--444--|

Bridge 1:
E------------------|
B------------------|
G--66--66--66------|
D--66--66--66--44--|
A--44--44--44--44--| 2x
E--------------22--|

Bridge Part 2:
E----------------------------------------|
B----------------------------------------|
G--66666666------------------------------|
D--66666666--66666666--4444444444444444--|
A--44444444--66666666--4444444444444444--| 2x
E------------44444444--2222222222222222--|

Outro Chorus:
E--------------------------------|
B--------------------------------|
G--66666666----------------------|    
D--66666666--66666666--44444444--|    
A--44444444--66666666--44444444--| 3x (Third time hold F#)
E------------44444444--22222222--|    

Outro:
E-----------------|
B-----------------|
G--666--666--666--|
D--666--666--666--|
A--444--444--444--|
E--444--444--444--|
Comments