Stroke 9 - Kick Chords & Tabs

 

Kick Chords & Tabs

Stroke 9 Chords & Tabs

Version: 1 Type: Tab 0 ratings
1 star 2 stars 3 stars 4 stars 5 stars
comments

Kick Tab

   
Two guitars arranged for one here, just for all those bands like mine
with one guitar player.
Intro and chorus
e|------------------------------------------------------------------|
B|-----7-7-7-7-7-------7-7-7-7-7----3h5h7-3h5h7-3h5h7-7-7-7p5-------|
G|7-7--------------7-7----------------------------------------------|
D|7-7--------------7-7------------5---------------------------------|
A|5-5--------------5-5------------5---------------------------------|
E|--------------------------------3---------------------------------|

Verse
D G
[ Tab from: http://www.guitartabs.cc/tabs/s/stroke_9/kick_tab.html ]
Part where he sings, "But I'm really just a sensitive artist" is:
D A G

Solo
e|------------------------------------------------------------------|
B|---13-9-13-8----somethin-somthing-just-improv-twice---------------|
G|------------------------------------------------------------------|
D|------------------------------------------------------------------|
A|------------------------------------------------------------------|
E|------------------------------------------------------------------|


Stretch
not 100% correct, well, cuz the solo isn't there, but the rest is dang close
so there ya go.
Comments