Stroke 9 - Kick Some Ass Chords & Tabs

 

Kick Some Ass Chords & Tabs

Stroke 9 Chords & Tabs

Version: 2 Type: Tab 0 ratings
1 star 2 stars 3 stars 4 stars 5 stars
comments

Kick Some Ass Tab

#----------------------------------PLEASE NOTE---------------------------------#
#This file is the author's own work and represents their interpretation of the #
#song. You may only use this file for private study, scholarship, or research. #
#------------------------------------------------------------------------------#
Intro 

E-----------------------------------------------------------------|
B-----------------------------------------------------------------|
G-----------------------------------------------------------------| 
D-----------------------------------------------------------------| 
A-5-5--5-5---------------5-5--5-5---------------------------------| 
E--------------3-3--3-3----------------3-3--3-3-------------------| 

  

Verse 
E-----------------------------------------------------------------| 
B-----------------------------------------------------------------|
G-----------------------------------------------------------------| 
D-----------------------------------------------------------------| 
A--5--2-2-2-5--2-2-2-5--2-2-2-5--2-2-2-5--2-2-2-5-----------------| 
E-----------------------------------------------------------------|

  
[ Tab from: http://www.guitartabs.cc/tabs/s/stroke_9/kick_some_ass_tab_ver_2.html ]
Pre-Chorus 
E-----------------------------------------------------------------|
B-----------------------------------------------------------------|
G-----------------------------------------------------------------| 
D---4------------------------4------------------------------------| 
A--------------5------------------------5-------------------------| 
E-----------------------------------------------------------------| 

  

Chorus 
E-----------------------------------------------------------------|
B-----------------------------------------------------------------|
G-----------------------------------------------------------------| 
D-----------------------------------------------------------------| 
A-5-5--5-5--------5-5--5-5--------5-5--5-5--------5-5--5-5--------| 
E---------3-3--3-3--------3-3--3-3--------3-3--3-3--------3-3--3-3| 

  

Post-Chorus 
E-----------------------------------------------------------------|
B-----------------------------------------------------------------|
G-----------------------------------------------------------------|
D-----------------------------------------------------------------| 
A-2--2-0--0--------0-2--2-0--0------------------------------------| 
E-----------3--3-3-------------3---------------------------------- 

Comments