Stroke 9 - Kick Some Ass Solo Chords & Tabs

 

Kick Some Ass Solo Chords & Tabs

Stroke 9 Chords & Tabs

Version: 1 Type: Tab 0 ratings
1 star 2 stars 3 stars 4 stars 5 stars
comments

Kick Some Ass Solo Tab

Title:  Kick Some Ass Solo
Artist:  Stroke 9
Album:  Rip It Off
Tabbed by:  Matthew "OmnipotentBob" Yauch
Standard Tuning/Dropped D

I tabbed out two different versions, since I've never seen this played live (and I didn't catch the fingerings in the music video, if they're even shown), and some people might be too lazy to go from 14 to 5 in the span of an eighth note.

| = The beats
[ Tab from: http://www.guitartabs.cc/tabs/s/stroke_9/kick_some_ass_solo_tab.html ]
   |     |   |     |   |          |          |       |          ____
e|-14-14-5---14-14-8-----15-15-15---10-10-10-7-7-7-7---15-15-15-    \
B|--------------------------------------------------------------     \
G|--------------------------------------------------------------      \
D|--------------------------------------------------------------       |
A|--------------------------------------------------------------       |
E|--------------------------------------------------------------       |
								        \ X2
   |     |   |     |   |           |           |       |		/
e|-14-14-5---14-14-8---15-15-15-15-10-10-10-10-7-7-7-7---15-15-15-     |
B|----------------------------------------------------------------     |
G|----------------------------------------------------------------     |
D|----------------------------------------------------------------    /
A|----------------------------------------------------------------   /
E|----------------------------------------------------------------__/



=================================   OR   =================================

   |     |   |     |   |          |          |           |          ____
e|-14-14-----14-14-------15-15-15--------------------------15-15-15-    \
B|-------10--------13---------------15-15-15-12-12-12-12------------     \
G|------------------------------------------------------------------      \
D|------------------------------------------------------------------       |
A|------------------------------------------------------------------       |
E|------------------------------------------------------------------       |
									    \ X2
   |     |   |     |   |           |           |           |		    /
e|-14-14-----14-14-----15-15-15-15---------------------------15-15-15-     |
B|-------10--------13--------------15-15-15-15-12-12-12-12------------     |
G|--------------------------------------------------------------------     |
D|--------------------------------------------------------------------    /
A|--------------------------------------------------------------------   /
E|--------------------------------------------------------------------__/

I admit it's very hard to hear whether it's just a downbeat with or without a note, so if you hear one somewhere I didn't, or you have a question, email me @ OmnipotentBob666@hotmail.com
Comments